» » »

O Coro Vai Come Bass tabs (ver.1)

Artists:  A B C D E F G H I J K L M N O P Q R S T U V W X Y Z # 

O Coro Vai Come Bass tabs (ver.1)

Charlie Brown Jr
Rating:
4/5 (1 vote)

Hard to play? Try these video lessons and learn fast.
                acordou todo mundo....
G:--------------------------------|
D:------5---5--3------------------|
A:---3------------6--5-6-5-6-5----| 2x
E:--------------------------------|

G:----------5---------------------|
D:------5------3------------------|
A:---3------------6--5-6-5-6-5----| 
E:--------------------------------|

When the guitar comes
G:--------------------------------|
D:------5---5--3-1---0-h2-0-h2----|
A:---3----------------------------| volta do inicio
E:--------------------------------|

In the end of the music
G:------------|
D:------------|
A:---3-----3--|
E:------3-----|
            
Hard to play? Try these video lessons and learn fast. | Correct




comments powered by Disqus
↑ Back to top | Tablatures and chords are parodies/interpretations of the original songs. You may use it for private study, scholarship, research or language learning purposes only