» » »

Charlie Brown Jr, NãO Deixe O Mar Te Engolir Bass tabs (ver.1)

Artists:  A B C D E F G H I J K L M N O P Q R S T U V W X Y Z # 

NãO Deixe O Mar Te Engolir Bass tabs (ver.1)

Charlie Brown Jr Tabs
Rating:
0/5 (0 votes)
NãO Deixe O Mar Te Engolir lessons Tabs too difficult? Try these video lessons and learn fast
                By Champignon. o-|-<):

Intro:
G|-------------------------------|
D|--------------------------4----| 
A|-4-6-6--4-6-6-----4-4--4----6-6| ( 12x )    
E|--------------4H6-----6--6-----|
ObS: Afinar o Mi em D#.

Base:
G|----------------------------------------------|
D|------------------------------------4-4-4h6---|
A|-4H6--6-4-4-4----4H6--6-4-4-4---4H6-------4-6-|
E|----0---------------0-------------------------|

Intro Novamente:
G|-------------------------------|
D|--------------------------4----| 
A|-4-6-6--4-6-6-----4-4--4----6-6| 
E|--------------4H6-----6--6-----|

Refrão:Não Deixe o Mar Te engolir !
G|-------------------------|
D|-------------------------|
A|-4H6-6--6-4-4--4H6-6--4-4|
E|-------------------------|

Intro Novamente:
G|-------------------------------|
D|--------------------------4----| 
A|-4-6-6--4-6-6-----4-4--4----6-6| 
E|--------------4H6-----6--6-----|


Base:
G|----------------------------------------------|
D|------------------------------------4-4-4h6---|
A|-4H6--6-4-4-4----4H6--6-4-4-4---4H6-------4-6-|
E|----0---------------0-------------------------|


Refrão:Não Deixe o Mar Te engolir !
G|-------------------------|
D|-------------------------|
A|-4H6-6--6-4-4--4H6-6--4-4|
E|-------------------------|

Base:
G|----------------------------------------------|
D|------------------------------------4-4-4h6---|
A|-4H6--6-4-4-4----4H6--6-4-4-4---4H6-------4-6-|
E|----0---------------0-------------------------|

Refrão:Não Deixe o Mar Te engolir !
G|-------------------------|
D|-------------------------|
A|-4H6-6--6-4-4--4H6-6--4-4|
E|-------------------------|

Impolgação:Final.
G|---------------------------|
D|---------------------------|
A|-4-6-4-6-6----6-4-4-4-4-4-4|
E|---------------------------|

See that music in Kazaa!
            

comments powered by Disqus
↑ Back to top | Charlie Brown Jr Bass for NãO Deixe O Mar Te Engolir. Lyrics for acoustic guitar and electric guitar. Tablatures and chords are parodies/interpretations of the original songs. You may use it for private study, scholarship, research or language learning purposes only