>
 >
Lugar Ao Sol

Lugar Ao Sol Guitar Tabs

Charlie Brown Jr - Lugar Ao Sol chords, tabs, tablatures, lyrics

Guitar lessons | Add/correct | Request | Top 50 tabs Artists:  A B C D E F G H I J K L M N O P Q R S T U V W X Y Z 0-9

Lugar Ao Sol Guitar Tabs – Charlie Brown Jr

CD, Sheet music, Poster

Do you like Lugar Ao Sol? Share with your friends now
Tabs
Song      - Lugar ao Sol
Band      - Charlie Brown Jr.
Album     - 100% Charlie Brown Abalando Sua Fábrica
Tuning    - Standart

 Intro 
 
(Gtr 1) Quite Distorced

E |-------------------------------6---------------------------------3~-|
B |-------------------------8---6---8-6---6-8-----------------------3~-|
G |---7---3-5---5---3-5-7-----7---------7-------7---3-5---5---3-5-7-3~-|
D |-5---5-----3---3---------------------------5---5-----3---3-------1~-|
A |-----------------------6--------------------------------------------|
E |--------------------------------------------------------------------|

(Gtr 2) Quite Distorced

E |-------------------|
B |-------------------|
G |-3-3-3-3-3-3-3-3-3-|
D |-1-1-1-1-1-1-1-1-1-|
A |-------------------|
E |-------------------|

 Verse 

(Gtr 2) 

E |-------3---------------------------------1---1---|
B |-------3-------------------4-4-4-4-4-4-4-x-4-x-4-|
G |---------------------------3-3-3-3-3-3-3-3-3-3-3-|
D |-5-5-5---5-5-5-3-3-3-3-3-3-1-1-1-1-1-1-1-1-1-1-1-|
A |-5-5-5---5-5-5-3-3-3-3-3-3-----------------------|
E |-3-3-3---3-3-3-1-1-1-1-1-1-----------------------|

E |-------3-----------------------------------------|
B |-------3-----------------------------------------|
G |---------------------------3-3-3-3-3-3-3-3-3-3-3-|
D |-5-5-5---5-5-5-3-3-3-3-3-3-1-1-1-1-1-1-1-1-1-1-1-|
A |-5-5-5---5-5-5-3-3-3-3-3-3-----------------------|
E |-3-3-3---3-3-3-1-1-1-1-1-1-----------------------|

E |-------3---------------------------------1---1---|
B |-------3-------------------4-4-4-4-4-4-4-x-4-x-4-|
G |---------------------------3-3-3-3-3-3-3-3-3-3-3-|
D |-5-5-5---5-5-5-3-3-3-3-3-3-1-1-1-1-1-1-1-1-1-1-1-|
A |-5-5-5---5-5-5-3-3-3-3-3-3-----------------------|
E |-3-3-3---3-3-3-1-1-1-1-1-1-----------------------|

E |-------3-----------------------3-----------------|
B |-------3--------------------------3--------------|
G |---------------------------3~-------3------------|
D |-5-5-5---5-5-5-3-3-3-3-3-3-1~--------------------|
A |-5-5-5---5-5-5-3-3-3-3-3-3-----------------------|
E |-3-3-3---3-3-3-1-1-1-1-1-1-----------------------|

(Gtr 1)

E |-------------------------------1---1---|
B |-------------------------------x-4-x-4-|
G |---7---3h5---5---3h5h7-3---3-3-3-3-3-3-|
D |-5---5-----3---3---------1-1-1-1-1-1-1-|
A |---------------------------------------|
E |---------------------------------------|

E |------------------------------------------|
B |------------------------------------------|
G |---7---3h5---5---3h5h7-3---3-3-3-3-3-3-3-3|
D |-5---5-----3---3---------1-1-1-1-1-1-1-1-1|
A |------------------------------------------|
E |------------------------------------------|

E |-----------------------------------1---1---|
B |-----------------------------------x-4-x-4-|
G |---7---3h5---5---3h5h7-3---3-3-3-3-3-3-3-3-|
D |-5---5-----3---3---------1-1-1-1-1-1-1-1-1-|
A |-------------------------------------------|
E |-------------------------------------------|

E |------------------------------------------|
B |------------------------------------------|
G |---7---3h5---5---3h5h7-3------------------|
D |-5---5-----3---3---------1~---------------|
A |------------------------------------------|
E |------------------------------------------|

 Chorus 

(Gtr 1)

E |-----------------------------------------------------------|      
B |-----------------------------------------------------------|      
G |-----------------------------------------------------------|      
D |---------------------------------------------8-8-8-8-8-8-8-|      
A |-8-8-8-8-8-8-8-8-8-8-8-8-8-8-8-5-5-5-5-5-5-5-6-6-6-6-6-6-6-|      
E |-6-6-6-6-6-6-6-6-6-6-6-6-6-6-6-3-3-3-3-3-3-3---------------|      
   PM * * * * * * * * * * * * * * * * * * * * * * * * * *             
                                                                        2X
E |--------------------------------------------------------------|   
B |--------------------------------------------------------------|   
G |--------------------------------------------------------------|   
D |-------------------------------8-8-8-8-8-8-8-11-11-x-10--11-11|   
A |-8-8-8-8-8-8-8-8-8-8-8-8-8-8-8-6-6-6-6-6-6-6--9--9-x--8---9--9|   
E |-6-6-6-6-6-6-6-6-6-6-6-6-6-6-6--------------------------------|   
  PM * * * * * * * * * * * * * * * *   * *   *                       

(Gtr 2)

E |-------------1~-------------------------|
B |-------------1~-------------------------|
G |----------------------------3-3-3-3-3-3-|
D |-3-3-3-3-3-3----------------1-1-1-1-1-1-|
A |-1-1-1-1-1-1----5-5-5-5-5-5-------------|
E |----------------3-3-3-3-3-3-------------|
                                                  2X
E |-------------1~--------------------------|
B |-------------1~--------------------------|
G |---------------3-3-3-3-3-3-3-6-6-5-5-6-6-|
D |-3-3-3-3-3-3---1-1-1-1-1-1-1-4-4-3-3-4-4-|
A |-1-1-1-1-1-1-----------------------------|
E |-----------------------------------------|

 Verse with variation in the end:

(Gtr 1)

E |-----------------|
B |-----------------|
G |-3~-------3~-----|
D |-1~-------1~-----|
A |-----------------|
E |-----------------|

(Gtr 2)

E |----3--------15~-|
B |------3------15~-|
G |--------3----15~-|
D |-------------13~-|
A |-----------------|
E |-----------------|

 Chorus

 Verse with variation in the end:

(Gtr 2)

E |--------------------------|
B |-----------------------3~-|
G |---7---3-5---5---3-5-7-3~-|
D |-5---5-----3---3-------1~-|
A |--------------------------|
E |--------------------------|

(Gtr 1)

E |---------------------|
B |-8~------------------|
G |-7~------------------|
D |-8~--8-8-8-8-8-8-8-8-|
A |-6~--6-6-6-6-6-6-6-6-|
E |---------------------|
      PM * * * * *

Bridge

(Gtr 1) Hard Distortion

E |-----------------------------|
B |-----------------------------|
G |-5-5-5-5-5-5-3-3/8-8-8-8-8-8-|     2x
D |-5-5-5-5-5-5-3-3/8-8-8-8-8-8-|
A |-3-3-3-3-3-3-1-1/6-6-6-6-6-6-|
E |-----------------------------|

E |-----------------------------------3----------|
B |-----------------------------------3----------|
G |-5-3-5-5-5-3-3/8-8-8-8-8-8-8---------------2~-|
D |-5-3-5-5-5-3-3/8-8-8-8-8-8-8-5-5-5---5-5-4-3~-|
A |-3-1-3-3-3-1-1/6-6-6-6-6-6-6-5-5-5---5-5-4-3~-|
E |-----------------------------3-3-3---3-3-2-1~-|

(Gtr 2) Hard Distortion 

E |-8-8-8-8-8-8-6--------------|
B |-x-x-x-x-x-x-x-8-8-8-8-8-8--|
G |-5-5-5-5-5-5-3-x-x-x-x-x-x--|     2x
D |---------------5-5-5-5-5-5--|
A |----------------------------|
E |----------------------------|

E |-8-8-8-8-8-8/10-8-6----|
B |-x-x-x-x-x-x--x-x-x-8~-|
G |-5-5-5-5-5-5/-7-5-3-x--|
D |--------------------5~-|
A |-----------------------|
E |-----------------------|

 Outro

(Gtr 1) play verse 

(Gtr 2) Hard Distortion

E |-6-8-10-10-10-10-10-13-10-13-10-13-10-13/15-15-15-15-15-15-15-|
B |--------------------------------------------------------------|
G |--------------------------------------------------------------|
D |--------------------------------------------------------------|
A |--------------------------------------------------------------|
E |--------------------------------------------------------------|

E |-13-13-13-13-13-13-13-10-8-6-8-8-8-6-6-6-6-6-6-6-6\-|
B |-----------------------x-x-x-x-x-x-x-x-x-x-x-x-x-x--|
G |-----------------------7-5-3-5-5-5-3-3-3-3-3-3-3-3\-|
A |----------------------------------------------------|
D |----------------------------------------------------|
E |----------------------------------------------------|

 Ending

(Gtr 1)

E |-------3---------------------------------1---1---|
B |-------3-------------------4-4-4-4-4-4-4-x-4-x-4-|
G |---------------------------3-3-3-3-3-3-3-3-3-3-3-|
D |-5-5-5---5-5-5-3-3-3-3-3-3-1-1-1-1-1-1-1-1-1-1-1-|
A |-5-5-5---5-5-5-3-3-3-3-3-3-----------------------|
E |-3-3-3---3-3-3-1-1-1-1-1-1-----------------------|

E |-------3-----------------------------------------|
B |-------3-----------------------------------------|
G |---------------------------3-3-3-3-3-3-3-3-3-3-3-|
D |-5-5-5---5-5-5-3-3-3-3-3-3-1-1-1-1-1-1-1-1-1-1-1-|
A |-5-5-5---5-5-5-3-3-3-3-3-3-----------------------|
E |-3-3-3---3-3-3-1-1-1-1-1-1-----------------------|

E |-------3---------------------------------1---1---|
B |-------3-------------------4-4-4-4-4-4-4-x-4-x-4-|
G |---------------------------3-3-3-3-3-3-3-3-3-3-3-|
D |-5-5-5---5-5-5-3-3-3-3-3-3-1-1-1-1-1-1-1-1-1-1-1-|
A |-5-5-5---5-5-5-3-3-3-3-3-3-----------------------|
E |-3-3-3---3-3-3-1-1-1-1-1-1-----------------------|

E |-----------------------3~-|
B |-----------------------3~-|
G |---7---3-5---5---3-5-7-3~-|
D |-5---5-----3---3-------1~-|
A |--------------------------|
E |--------------------------|

(Gtr 2)

E |-------------------------------1---1---|
B |-------------------------------x-4-x-4-|
G |---7---3h5---5---3h5h7-3---3-3-3-3-3-3-|
D |-5---5-----3---3---------1-1-1-1-1-1-1-|
A |---------------------------------------|
E |---------------------------------------|

E |------------------------------------------|
B |------------------------------------------|
G |---7---3h5---5---3h5h7-3---3-3-3-3-3-3-3-3|
D |-5---5-----3---3---------1-1-1-1-1-1-1-1-1|
A |------------------------------------------|
E |------------------------------------------|

E |-----------------------------------1---1---|
B |-----------------------------------x-4-x-4-|
G |---7---3h5---5---3h5h7-3---3-3-3-3-3-3-3-3-|
D |-5---5-----3---3---------1-1-1-1-1-1-1-1-1-|
A |-------------------------------------------|
E |-------------------------------------------|

E |--------------------------|
B |-----------------------8~-|
G |---7---3-5---5---3-5-7-7~-|
D |-5---5-----3---3-------8~-|
A |-----------------------6~-|
E |--------------------------|
 
 I play this way..





Comments


Popular Charlie Brown Jr tabs & chords
NãO Deixe O Mar Te Engolir Bass Tabs
Proibida Pra Mim 1 Bass Tabs
Puxa Carro Bass Tabs
Tudo Que Ela Gosta De Escutar 1 Bass Tabs
Pontes Indestrutveis Chords
Samba Makossa Chords
Tudo O Que Ela Gosta De Escutar Chords
Samba Makossa Ukulele
So Os Loucos Sabem Ukulele
Tudo O Que Ela Gosta De Escutar Ukulele


Song lyrics



↑ Back to top | Tablatures and chords are parodies/interpretations of the original songs. You may use it for private study, scholarship, research or language learning purposes only
© 2014 AZChords.com Contact us | Privacy policy | DMCA | Add/correct tabs | Request tabs | Top 50 tabs