» » »

Charlie Brown Jr, Longe De Voc Tabs (ver.1)

Artists:  A B C D E F G H I J K L M N O P Q R S T U V W X Y Z # 

Longe De Voc Tabs (ver.1)

Charlie Brown Jr Tabs
 Rating:
4/5 (4 votes)
Longe De Voc lessons Tabs too difficult? Try these video lessons and learn fast
                Tom: G

Intro:

   B5       C5    G5(7M)      D5
E|------------------------------------------------------|
B|----------------7-7-7-7-7-----------------------------|
G|-4-4—x-x--5-5---7-7-7-7-7---7-7-7---------------------|
D|-4-4—x-x--5-5---5-5-5-5-5---7-7-7---------------------|
A|-2-2—x-x--3-3---------------5-5-5---------------------|
E|------------------------------------------------------|



   E5          B5      D5      F#5 G5
E|------------------------------------------------------|
B|------------------------------------------------------|
G|-9-9-9-9-9---4-4-4---7-7-x----------------------------|
D|-9-9-9-9-9---4-4-4---7-7-x---4-4-5-5------------------|
A|-7-7-7-7-7---2-2-2---5-5-x---4-4-5-5------------------|
E|-----------------------------2-2-3-3------------------|


Primeira parte:
 B5       C5            G5         D5
Longe de você eu enlouqueço muito mais
    E5             B5                    D5     F#5  G5
Eu vivo na espera de poder viver a vida com você
B5         C5         G5                     D5
  Vejo pessoas sem saberem pra onde o mundo vai
    E5                    B5        D5  F#5  G5
Eu conto as horas para estar com você
 B5       C5         G5           D5
Longe de você eu preciso de algo mais
    E5             B5                    D5     F#5  G5
Eu vivo na espera de poder viver a vida com você
B5         C5         G5                     D5
  Vejo pessoas sem saberem pra onde o mundo vai
    E5                    B5        D5  F#5  G5
Eu conto as horas para estar com você
Primeira parte:

   B5      C5      G5(7M)      D5
E|------------------------------------------------------|
B|-----------------7-7-7-7-7----------------------------|
G|-4-4—x---5-5-5---7-7-7-7-7---7-7-7--------------------|
D|-4-4—x---5-5-5---5-5-5-5-5---7-7-7--------------------|
A|-2-2—x---3-3-3---------------5-5-5--------------------|
E|------------------------------------------------------|



   E5          B5      D5      F#5 G5
E|------------------------------------------------------|
B|------------------------------------------------------|
G|-9-9-9-9-9---4-4-4---7-7-x----------------------------|
D|-9-9-9-9-9---4-4-4---7-7-x---4-4-5-5------------------|
A|-7-7-7-7-7---2-2-2---5-5-x---4-4-5-5------------------|
E|-----------------------------2-2-3-3------------------|



Refrão:
E5                          C7M
  Que mundo é esse que ninguém entende um sonho?
E5                          C7M
  Que mundo é esse que ninguém sabe mais amar?
E5                         C7M
  Pra tanta coisa que faz mal eu me disponho
E5                        C7M
  Quando eu te vejo eu começo a sorrir
E5      C7M
  Eu começo a sorrir

( E5  C7M )
Solo 1: Em D E4 A/E

   Em                  D
E|-----------------------------------------------------|
B|-8-8-8-8-8-8-8/10-8--7--7-7-7---7-7-7-7---7-7-7------|
G|-----------------------------------------------------|
D|-----------------------------------------------------|
A|-7-7-7-7-7-7-7----7--5--5-5-5---5-5-5-5---5-5-5------|
E|-----------------------------------------------------|


   E4                        A/E
E|----------------------------9--9--9--9---------------|
B|-10-10-10-10-10-10-10-10---10-10-10-10---------------|
G|-----------------------------------------------------|
D|-----------------------------------------------------|
A|--7--7--7--7--7--7--7--7----7--7--7--7---------------|
E|-----------------------------------------------------|


    A/E
E|--9--9--9--9----9--9---9-----------------------------|
B|-10-10-10-10---10-10-10------------------------------|
G|-----------------------------------------------------|
D|-----------------------------------------------------|
A|--7--7--7--7----7--7--7------------------------------|
E|-----------------------------------------------------|


Solo 2:  Em7  D6(9)  C6(9) A5


   Em7                   D6(9)
E|-10-10-10-10-10-10-10--7-7-7-7---7-7-7-7---7-7-7-----|
B|--8--8--8--8--8--7--8--5-5-5-5---5-5-5-5---5-5-5-----|
G|-----------------------------------------------------|
D|-----------------------------------------------------|
A|--7--7--7--7--7--7--7--5-5-5-5---5-5-5-5---5-5-5-----|
E|-----------------------------------------------------|


   C6(9)            A5
E|-5--5-5-5-5-5-5-5----------------------|
B|-3--3-3-3-3-3-3-3----------------------|
G|-------------------2---2--2--2---------|
D|-------------------2---2--2--2---------|
A|-3--3-3-3-3-3-3-5--0---0--0--0---------|
E|---------------------------------------|


   A5
E|-----------------------------------------------------|
B|-----------------------------------------------------|
G|-2--2--2--2---2-2-2-2--------------------------------|
D|-2--2--2--2---2-2-2-2--------------------------------|
A|-0--0--0--0---0-0-0-0--------------------------------|
E|-----------------------------------------------------|


( B5 C5 G5(7M) D5 E5 B5 D5 F#5 G5 )


Primeira parte - com variação na letra:
B5              C5          G5                 D5
  Não quero disperdiçar a chance de ter encontrado você
 E5                      B5              D5  F#5  G5
Hoje o que eu mais quero é fazer você feliz
B5            C5                    G5          D5
  Vejo as pessoas e sei que juntos nós podemos muito mais
    E5                B5                 D5      F#5 G5
Eu vivo na espera de poder viver a vida com você

Refrão:
E5                          C7M
  Que mundo é esse que ninguém entende um sonho?
E5                          C7M
  Que mundo é esse que ninguém sabe mais amar?
E5                         C7M
  Pra tanta coisa que faz mal eu me disponho
E5                        C7M
  Quando eu te vejo eu começo a sorrir
E5      C7M
  Eu começo a sorrir

( E5   C7M )
Solo:

   Em                  D
E|-----------------------------------------------------|
B|-8-8-8-8-8-8-8/10-8--7--7-7-7---7-7-7-7---7-7-7------|
G|-----------------------------------------------------|
D|-----------------------------------------------------|
A|-7-7-7-7-7-7-7----7--5--5-5-5---5-5-5-5---5-5-5------|
E|-----------------------------------------------------|


   E4                        A/E
E|---------------------------9--9--9--9----------------|
B|-10-10-10-10-10-10-10-10---10-10-10-10---------------|
G|-----------------------------------------------------|
D|-----------------------------------------------------|
A|-7--7--7--7--7--7--7--7----7--7--7--7----------------|
E|-----------------------------------------------------|


E|-9--9--9--9----9--9---9------------------------------|
B|-10-10-10-10---10-10-10------------------------------|
G|-----------------------------------------------------|
D|-----------------------------------------------------|
A|-7--7--7--7----7--7--7-------------------------------|
E|-----------------------------------------------------|


Solo 2 - como base:
    Em7                            D6(9)
Molduras boas não salvam quadros ruins
         C6(9)                                  A5
Eu procurei a vida inteira sem saber bem pelo que

(solo 01 como base)
                   Em               D
Mas se pelo menos você estivesse aqui
             E4                      A/E
Eu conto as horas pra estar com você

(solo 02 como base)
           Em7          D6(9)
Eu estive lá na sua presença
          C6(9)          A5
Só pra saber o que você diria sobre nós

(Intro 2x)

B5  C5     G5    D5      E5  B5  D5  F#5  G5
       O que te diz mais?  (2x)
            
Submit corrections

comments powered by Disqus
↑ Back to top | Charlie Brown Jr Tabs for Longe De Voc. Lyrics for acoustic guitar and electric guitar. Tablatures and chords are parodies/interpretations of the original songs. You may use it for private study, scholarship, research or language learning purposes only