>
 >
Police Story

Police Story Guitar Tabs

Chaos Uk - Police Story chords, tabs, tablatures, lyrics

Guitar lessons | Add/correct | Request | Top 50 tabs Artists:  A B C D E F G H I J K L M N O P Q R S T U V W X Y Z 0-9

Police Story Guitar Tabs – Chaos Uk

CD, Sheet music, Poster

Do you like Police Story? Share with your friends now
Tabs
Chaos UK - Police Story
Originally By The Partisans
Standard Tuning EADGBE

-------------
Key:
-------------
. Palm Mute
~ Vibrato
h Hammer-On
p Pull-Off
b Bend
r Release
/ Slide Up
\ Slide Down
-------------

Intro
||-----------------------5-4-5-------|
||---------5-7-5-----7-8-------------|
||-7-6-7-8-------8-7-----------6-7~--|
||-----------------------------------|
||-----------------------------------|
||-----------------------------------|


|-------------------------------------------||
|-------------------------------------------||
|-9-9-9-9-9-9-9-9-9-9-9-9-9-9-9-9--9--9--9~-||
|-9-9-9-9-9-9-9-9-9-9-9-9-9-9-9-9--9--9--9~-||
|-7-7-7-7-7-7-7-7-7-7-7-7-7-7-7-7--7--7--7~-||
|-------------------------------------------||



Verse                                                               8x
||--------------------------------------------------------------------||
||*------------------------------------------------------------------*||
||--9-9-9-9-9-9-9-9---------------------------------------------------||
||--9-9-9-9-9-9-9-9-1010101010101010-9-9-9-9-9-9-9-9-5-5-5-5-7-7-7-7--||
||*-7-7-7-7-7-7-7-7-1010101010101010-9-9-9-9-9-9-9-9-5-5-5-5-7-7-7-7-*||
||------------------8-8-8-8-8-8-8-8--7-7-7-7-7-7-7-7-3-3-3-3-5-5-5-5--||



Chorus                                           2x
||-------------------------------------------------||
||*-----------------------------------------------*||
||-------------------------------------------------||
||--9-9-9-9-9-9-9-9-5--7--9-9-9-9-9-9-9-9-12--11---||
||*-9-9-9-9-9-9-9-9-5--7--9-9-9-9-9-9-9-9-12--11--*||
||--7-7-7-7-7-7-7-7-3--5--7-7-7-7-7-7-7-7-10--9----||



Verse                                                               6x
||--------------------------------------------------------------------||
||*------------------------------------------------------------------*||
||--9-9-9-9-9-9-9-9---------------------------------------------------||
||--9-9-9-9-9-9-9-9-1010101010101010-9-9-9-9-9-9-9-9-5-5-5-5-7-7-7-7--||
||*-7-7-7-7-7-7-7-7-1010101010101010-9-9-9-9-9-9-9-9-5-5-5-5-7-7-7-7-*||
||------------------8-8-8-8-8-8-8-8--7-7-7-7-7-7-7-7-3-3-3-3-5-5-5-5--||



Chorus                                           2x
||-------------------------------------------------||
||*-----------------------------------------------*||
||-------------------------------------------------||
||--9-9-9-9-9-9-9-9-5--7--9-9-9-9-9-9-9-9-12--11---||
||*-9-9-9-9-9-9-9-9-5--7--9-9-9-9-9-9-9-9-12--11--*||
||--7-7-7-7-7-7-7-7-3--5--7-7-7-7-7-7-7-7-10--9----||



Bridge                          4x
||--------------------------------||
||*------------------------------*||
||--------------------------------||
||--9--9-9\7--7-7\5--5-5\4--4-4---||
||*-9--9-9\7--7-7\5--5-5\4--4-4--*||
||--7--7-7\5--5-5\3--3-3\2--2-2---||



Chorus                                           2x
||-------------------------------------------------||
||*-----------------------------------------------*||
||-------------------------------------------------||
||--9-9-9-9-9-9-9-9-5--7--9-9-9-9-9-9-9-9-12--11---||
||*-9-9-9-9-9-9-9-9-5--7--9-9-9-9-9-9-9-9-12--11--*||
||--7-7-7-7-7-7-7-7-3--5--7-7-7-7-7-7-7-7-10--9----||



Verse                                                               4x
||--------------------------------------------------------------------||
||*------------------------------------------------------------------*||
||--9-9-9-9-9-9-9-9---------------------------------------------------||
||--9-9-9-9-9-9-9-9-1010101010101010-9-9-9-9-9-9-9-9-5-5-5-5-7-7-7-7--||
||*-7-7-7-7-7-7-7-7-1010101010101010-9-9-9-9-9-9-9-9-5-5-5-5-7-7-7-7-*||
||------------------8-8-8-8-8-8-8-8--7-7-7-7-7-7-7-7-3-3-3-3-5-5-5-5--||



Note - This was tabbed from a live version of the song as I don't think
       that they've ever recorded it for an album. And as stated above,
       this is a cover song originally done by The Partisans.





Comments


Popular Chaos Uk tabs & chords
Happy Spaztik Bass Tabs
Ronnie Bass Tabs
Victimized Bass Tabs
4 Minute Warning Tabs
Dont Talk To Me Tabs
Hate Tabs
Little Bastard Tabs
Masturbator Tabs
No Security 1 Tabs
The Alcoholic Tabs


Song lyrics



↑ Back to top | Tablatures and chords are parodies/interpretations of the original songs. You may use it for private study, scholarship, research or language learning purposes only
© 2014 AZChords.com Contact us | Privacy policy | DMCA | Add/correct tabs | Request tabs | Top 50 tabs