» » »

Chaos Uk, Little Bastard Tabs (ver.1)

Artists:  A B C D E F G H I J K L M N O P Q R S T U V W X Y Z # 

Little Bastard Tabs (ver.1)

Chaos Uk Tabs
Rating:
0/5 (0 votes)
Little Bastard lessons Tabs too difficult? Try these video lessons and learn fast
                This tab may require you to do some string bending, hammering, palm muting, pick 
or other guitar techniques you will be able to figure out by listening to the song. You may 
have to play a chord shown more than once in sequence. This tab are in standard guitar tuning.

You can find more great punk/oi tabs on my site:
BLACKJACKAL.PHPNET.US

Intro:

e|---------------    -|
B|---------------    -|
G|-5-01-0--03-05-    -|
D|-5-01-03-03-05- x4 -|
A|-------3-------    -|
E|---------------    -|

Main Riff, Verse and Chorus:

e|-----------|
B|-----------|
G|-----------|
D|-5-----3-5-|
A|-3-6-3-1-3-|
E|---4-1-----|

Riff before the Solo:

e|-----------------------------|
B|-----------------------------|
G|-----------------------------|
D|-8---5-8-10-8-5-8---8--------|
A|-6-8-3-6-8--6-3-6-8-6-8-5-17-|
E|---6--------------6---6-3-15-|

Solo:

e|-----------------    -------------------------------------|
B|-----------------    -----------6-8-----------------------|
G|-----------------    -------5-8-----8-5-3-5-8-----8-10----|
D|---------5------- x7 -------------------------8-8------10-|
A|-----6-8---8-6---    -----6-------------------------------|
E|-6-8-----------8-    -6-8---------------------------------|

Outro:

e|-----------------    -----|
B|-----------------    -----|
G|-----------------    -----|
D|---------5------- x7 -----|
A|-----6-8---8-6---    -----|
E|-6-8-----------8-    -6-8-|
            
Submit corrections

comments powered by Disqus
↑ Back to top | Chaos Uk Tabs for Little Bastard. Lyrics for acoustic guitar and electric guitar. Tablatures and chords are parodies/interpretations of the original songs. You may use it for private study, scholarship, research or language learning purposes only