» » »

4 Minute Warning Tabs (ver.1)

Artists:  A B C D E F G H I J K L M N O P Q R S T U V W X Y Z # 

4 Minute Warning Tabs (ver.1)

Chaos Uk
Rating:
0/5 (0 votes)

Hard to play? Try these video lessons and learn fast.
                -----------------------------------------------------------------
4 Minute Warning - Chaos U.K.
-----------------------------------------------------------------

Tuning: Standard

Intro:
e|---------------------------------------------------------------|
B|---------------------------------------------------------------|
G|---------------------------------------------------------------|
D|-5-------------------------------------------------------------|
A|-5-(hit this a few times randomly)-----------------------------|
E|-3-------------------------------------------------------------|

Verse:
e|---------------------------------------------------------------|
B|---------------------------------------------------------------|
G|------1-3-1----------------------------------------------------|
D|-5555-3-5-3----------------------------------------------------|
A|-5555-3-5-3----------------------------------------------------|
E|-3333----------------------------------------------------------|

Chorus:
e|---------------------------------------------------------------|
B|---------------------------------------------------------------|
G|----------777777-----------------------------------------------|
D|-77777-10-777777-----------------------------------------------|
A|-77777-10-555555-----------------------------------------------|
E|-66666--8------------------------------------------------------|

| / slide up
| \ slide down
| h hammer-on
| p pull-off
| ~ vibrato
| + harmonic
| x Mute note
            
Hard to play? Try these video lessons and learn fast. | Correct




comments powered by Disqus
↑ Back to top | Tablatures and chords are parodies/interpretations of the original songs. You may use it for private study, scholarship, research or language learning purposes only