» » »

Mr Baylis Bass tabs (ver.1)

Artists:  A B C D E F G H I J K L M N O P Q R S T U V W X Y Z # 

Mr Baylis Bass tabs (ver.1)

Chambers Kasey
Rating:
0/5 (0 votes)

Hard to play? Try these video lessons and learn fast.
                MR BAYLIS – Kasey Chambers


Listen to the song to get the timing just right.

INTRO
G--------------------|-------8--6--------------
D-9--8--6--4--2—-2---|-9--8--------2--2--------
A---------------2----|---------------2---------
E--------------------|-------------------------

VERSE
G--------------------|-------------------------
D-4-4-2-2-2/4--------|-4-2---------------------
A-------------2--0-2-|-----2--0-2-2------------
E--------------------|-------------------------

G----------------------------------------------
D-2--2/6-4---------2--0/2-4---4----------------
A-----------2-1-------------4------------------
E---------------4------------------------------

CHORUS
G----------------------------------------------
D---------2-2-4-4----------2---4---------------
A-2-2-4-4----------2-1-------2---4-------------
E----------------------4-4---------------------

G----------------------------------------------
D---------2--2-4------------2---2---2---4------
A-2-2-4-4---2----4--2-1-------2---2---4--------
E-----------------------4-2--------------------

INTRO again

VERSE again

CHORUS again, then,

G--------------------|-------------------------
D-9--8--6--4--2—-2---|-9--8--6--4--2--2--------
A---------------2----|---------------2---------
E--------------------|-------------------------

G----------------------------------------------
D-9--9--9--9--4--4--2--2----------2---2--------
A-------------------------2-1-------2----------
E-----------------------------4-2--------------

REST 8 BARS

G----------------------------------------------
D-------------------------------/2--2-4--------
A--0-2-2-4-4-2-2-1-1--2-1----------------------
E-2-----------------------4-2-0----------------

G--------------------|-------8--6--------------
D-9--8--6--4--2—-2---|-9--8--------2-----------
A---------------2----|---------------2---------
E--------------------|-----------------2-0-----

LET OPEN E RING
            
Hard to play? Try these video lessons and learn fast. | Correct




comments powered by Disqus
↑ Back to top | Tablatures and chords are parodies/interpretations of the original songs. You may use it for private study, scholarship, research or language learning purposes only