» » »

Last Hard Bible Bass tabs (ver.1)

Artists:  A B C D E F G H I J K L M N O P Q R S T U V W X Y Z # 

Last Hard Bible Bass tabs (ver.1)

Chambers Kasey
Rating:
0/5 (0 votes)

Hard to play? Try these video lessons and learn fast.
                LAST HARD BIBLE - Kasey Chambers

Intro (After first chorus)
G -------
D --/9---
A ------- x 4
E -------

Verse
G ---------------------------------------
D ---7-9---9---9---9---2---2---9---9-----
A -9-----9---9---9---9---2---2---9---9---
E ---------------------------------------

G -------------------------------------
D -9---9---9---9----2-2--4-4-----------
A ---9---9---9---9-----------2-2-2-2---
E -------------------------------------

Chorus
G -------6-------------------------6---
D -9-7-4-----------------4---4-6-8-----
A ---------2-2-2-2---2-6---6-----------
E -------------------------------------

G -----------------------------------------
D -9-7-6-4-2---2-2/4-----4-4-2-2-----------
A -----------2-------2-2---------2-2-2-2---
E -----------------------------------------

Solo
G ---------------------------
D -9---9---9---9---2---2-----
A ---9---9---9---9---2---2---
E ---------------------------

G --------------------------------------------------
D -9---9---7-9---9---9---9----2-2--4-4--9-----------
A ---9---9-----9---9---9---9--------------9-7-5-2---
E --------------------------------------------------
            
Hard to play? Try these video lessons and learn fast. | Correct




comments powered by Disqus
↑ Back to top | Tablatures and chords are parodies/interpretations of the original songs. You may use it for private study, scholarship, research or language learning purposes only