» » »

Ceremony, This Is My War Tabs (ver.1)

Artists:  A B C D E F G H I J K L M N O P Q R S T U V W X Y Z # 

This Is My War Tabs (ver.1)

Ceremony Tabs
 Rating:
4.2/5 (5 votes)
This Is My War lessons Tabs too difficult? Try these video lessons and learn fast
1
                violence violence
bridge nine records
standard tuning half-step down


------------------------------------------------|
------------------------------------------------|
------------------------------------------------|
------------------------------------------------|
------------------------------------------------|
-6^---------------------------------------------|


------------------------------------------------|
------------------------------------------------|
------------9-8---------8-7---------------------|
----8-8-8-8-9-8-8-8-8-8-8-7--x4-----------------|
----8-8-8-8-7-6-8-8-8-8-6-5---------------------|
----6-6-6-6-----6-6-6-6-------------------------|


------------------------------------------------|
------------------------------------------------|
-8-8-8-8-8-8-8-8-8-8-8-8-8-8-8-8----------------|
-8-8-8-8-8-8-8-8-8-8-8-8-8-8-8-8----------------|
-6-6-6-6-6-6-6-6-6-6-6-6-6-6-6-6----------------|
------------------------------------------------|


------------------------------------------------|
------------------------------------------------|
------------------------------------------------|
-5-5-5-5-5-5-5-5-5-5-5-5-5-5-5-5----------------|
-5-5-5-5-5-5-5-5-5-5-5-5-5-5-5-5----------------|
-3-3-3-3-3-3-3-3-3-3-3-3-3-3-3-3----------------|


------------------------------------------------|
------------------------------------------------|
------------9-8---------8-7---------9-8---------|
----8-8-8-8-9-8-8-8-8-8-8-7-8-8-8-8-9-8-7-8-----|
----8-8-8-8-7-6-8-8-8-8-6-5-8-8-8-8-7-6-7-8-----|
----6-6-6-6-----6-6-6-6-----6-6-6-6-----5-6-----|


guitar one
------------------------------------------------|
------------------------------------------------|
------------------------------------------------|
-5----6----5----8----9----6---------------------|
-5-x8-6-x4-5-x4-8-x8-9-x4-6-x4------------------|
-3----4----3----6----7----4---------------------|


guitar two
------------------------------------------------|
------------------------------------------------|
-12----13----12----15----16----13---------------|
-x--x8-x--x4-x--x4-x--x8-x--x4-x--x4------------|
-10----11----10----13----14----11---------------|
------------------------------------------------|
play above two measures twice


---------------------------------------------------|
---------------------------------------------------|
---------------------------------------------------|
-5-------------------------------------------------|
-5-x7----------------------------------------------|
-3-------------------------------------------------|
            
Submit corrections

comments powered by Disqus
↑ Back to top | Ceremony Tabs for This Is My War. Lyrics for acoustic guitar and electric guitar. 1 Tablatures and chords are parodies/interpretations of the original songs. You may use it for private study, scholarship, research or language learning purposes only