>
 >
Moving Principle

Moving Principle Guitar Tabs

Ceremony - Moving Principle chords, tabs, tablatures, lyrics

Guitar lessons | Add/correct | Request | Top 50 tabs Artists:  A B C D E F G H I J K L M N O P Q R S T U V W X Y Z 0-9

Moving Principle Guitar Tabs – Ceremony

CD, Sheet music, Poster

Do you like Moving Principle? Share with your friends now
Tabs

This album is in an odd tuning, it's half-way between standard tuning and half-step 
down. I find the easiest way to achieve this tuning is to use a chromatic tuner set at 427hz 
rather than the standard 440.

Verse

part 1

e|-----------------------------|
B|-----------------------------|
G|-----------------------------|
D|-8--8-8-8-8-8-6/8--8-8-8-8-8-|
A|-8--8-8-8-8-8-6/8--8-8-8-8-8-|
E|-6--6-6-6-6-6-4/6--6-6-6-6-6-|

(in this part, the bass plays this)

G|-----------------------------|
D|-----------------------------|
A|----------6-------------6----|
E|-6--6-6-6----6-6--6-6-6----6-|


part 2

e|--------------------------|
B|----------6-------------6-|
G|----------6-------------6-|
D|-6--6-6-6-6--6-6--6-6-6-6-|
A|-6--6-6-6-4--6-6--6-6-6-4-|
E|-4--4-4-4-4--4-4--4-4-4-4-|


part 3

e|---------------------------------|
B|---------------------------------|
G|---------------------------------|
D|-4-4-4-4-4-4-4-4-4-4-4-4-4-4-4-4-|
A|-4-4-4-4-4-4-4-4-4-4-4-4-4-4-4-4-|
E|-2-2-2-2-2-2-2-2-2-2-2-2-2-2-2-2-|


Chorus (one)                             (two)

e|---x-x---x-x----x-x---x-x---------|  |---------|
B|-4-x-x---x-x--4-x-x---x-x-4/6-6-6-|  |---------|
G|-4-x-x---x-x--4-x-x---x-x-4/6-6-6-|  |---------|
D|-4-x-x-4-x-x--4-x-x-4-x-x-4/6-6-6-|  |-6-------|
A|-2-x-x-4-x-x--2-x-x-4-x-x-2/4-4-4-|  |-6-(x16)-|
E|---x-x-2-x-x----x-x-2-x-x---------|  |-4-------|



Order
----------------


[Part one x6]
[Part one x2 (w/ bass)]

[Part one x2]
Welcome to some kind of greed
'Does this make you happy?
[Part two x2]
They got you working in machines
Mr. Grieves is shadowing
[Part one x2]
New generations for the hunt
Millions of new minds to gut
[Part two x2]
Technisism is scary
And the singularity
[Part three x2]
No more analog for us
'Does this make you happy?'

[Chorus x4]
The moving principle means going forward
Without the drag of this modern world
The moving principle means going forward
Without the drag of this modern world

[Part one x2]
They had me wired, they had me tapped
I live on a grid, centered the map
[Part two x2]
Used to live on a salary
Feed my guts to the IRS
[Part one x2]
Dropped out for an alter wage
Sold my soul to the DEA
[Part two x2]
Started living a private life
Away from the magnetic traps
[Part three x2]
Now they have no part of me
I'm just an obsolete thing

[Chorus x4]
The moving principle means going forward
Without the drag of this modern world
The moving principle means going forward
Without the drag of this modern world

[Chorus one x3]
[Chorus two x1]

[Chorus x8]
The modern world is surrounding me
The modern world is slowly burning





Comments


Popular Ceremony tabs & chords
Hysteria Bass Tabs
Kersed Bass Tabs
Open Head Bass Tabs
Plutocratic Swine Rake Bass Tabs
Hysteria Tabs
Kersed Tabs
Kersed 1 Tabs
The Difference Between Looking And Seeing Tabs
This Is My War Tabs
Throwing Bricks Tabs


Song lyrics



↑ Back to top | Tablatures and chords are parodies/interpretations of the original songs. You may use it for private study, scholarship, research or language learning purposes only
© 2014 AZChords.com Contact us | Privacy policy | DMCA | Add/correct tabs | Request tabs | Top 50 tabs