» » »

Living Hell Tabs (ver.1)

Artists:  A B C D E F G H I J K L M N O P Q R S T U V W X Y Z # 

Living Hell Tabs (ver.1)

Ceremony
Rating:
5/5 (4 votes)

Hard to play? Try these video lessons and learn fast.
                

Tuning: Drop D

32 seconds of pure adrenaline, woo hoo!


  0:00
e|-----------------------|
B|-----------------------|
G|-------6666-4444-------| x4
D|--6666-6666-4444-4444--|
A|--6666-4444-2222-4444--|
D|--6666-----------4444--|

  0:07
e|--------------------|
B|--------------------|
G|----xx-6-xx-4-xx----| x2
D|--6-xx-6-xx-4-xx-4--|
A|--6-xx-4-xx-2-xx-4--|
D|--6-xx---xx---xx-4--|

  0:10
e|-----------------------|
B|-----------------------|
G|-------6666-4444-------| x2
D|--6666-6666-4444-4444--|
A|--6666-4444-2222-4444--|
D|--6666-----------4444--|

  0:13
e|-----------------------------------------------|
B|-----------------------------------------------|
G|-----------------------------------------------|
D|--6--6--6----6-----6--------6----------6~------|
A|--6--6--6----6-----6--------6----------6~------|
D|--6--6--6----6-----6--------6----------6~------|

  0:21
e|------------------------------------------------|
B|------------------------------------------------|
G|------------------------------------------------|
D|--6-6----6-7-7-2-22-6-6----6-7-7-2-22-6~--------|
A|--6-6-66-6-7-7-2-22-6-6-66-6-7-7-2-22-6~--------|
D|--6-6-66-6-7-7-2-22-6-6-66-6-7-7-2-22-6~--------|
        ..                ..
            
Hard to play? Try these video lessons and learn fast. | Correct




comments powered by Disqus
↑ Back to top | Tablatures and chords are parodies/interpretations of the original songs. You may use it for private study, scholarship, research or language learning purposes only