» » »

I Want To Put This To An End Tabs (ver.1)

Artists:  A B C D E F G H I J K L M N O P Q R S T U V W X Y Z # 

I Want To Put This To An End Tabs (ver.1)

Ceremony
Rating:
0/5 (0 votes)

Hard to play? Try these video lessons and learn fast.
                violence violence
bridge nine records
standard tuning half-step down


------------------------------------------------|
------------------------------------------------|
------------------------------------------------|
-2~--2~-----------------------------------------|
-2~--2~-----------------------------------------|
-0~--0~-----------------------------------------|


the strumming pattern is hard to tab out, so here are the chords
------------------------------------------------|
------------------------------------------------|
----8-3----3-4-7-8------------------------------|
-2--8-3--2-3-4-7-8--x2--------------------------|
-2--6-1--2-1-2-5-6------------------------------|
-0-------0--------------------------------------|


------------------------------------------------|
------------------------------------------------|
-10-----3----4-----10-----6----7----------------|
-10-x16-3-x8-4-x8--10-x16-6-x8-7-x8--2~---------|
-8------1----2-----8------4----5-----2~-x8------|
-------------------------------------0~---------|


------------------------------------------------|
------------------------------------------------|
-5-----6----------------------------------------|
-5-2~--6-3~-x4---2~-----------------------------|
-3-2~--4-3~------2~-----------------------------|
---0~----1~------0~-----------------------------|
            
Hard to play? Try these video lessons and learn fast. | Correct




comments powered by Disqus
↑ Back to top | Tablatures and chords are parodies/interpretations of the original songs. You may use it for private study, scholarship, research or language learning purposes only