» » »

Its Going To Be A Cold Winter Tabs (ver.1)

Artists:  A B C D E F G H I J K L M N O P Q R S T U V W X Y Z # 

Its Going To Be A Cold Winter Tabs (ver.1)

Ceremony
Rating:
0/5 (0 votes)

Hard to play? Try these video lessons and learn fast.
                violence violence
bridge nine records
standard tuning half-step down


----------------------------------------------------|
----------------------------------------------------|
-7----3----2----------------------------------------|
-7-x8-3-x4-2-x4-4----7----5----8--------------------|
-5----1----0----4-x4-7-x4-5-x4-8-x4-----------------|
----------------2----5----3----6--------------------|
play the last four chords four times


------------------------------------------------|
------------------------------------------------|
------------------------------------------------|
-4-4-5-4-8-7----5-------------------------------|
-4-4-5-4-8-7-x3-5-x5----------------------------|
-2-2-3-2-6-5----3-------------------------------|
            
Hard to play? Try these video lessons and learn fast. | Correct




comments powered by Disqus
↑ Back to top | Tablatures and chords are parodies/interpretations of the original songs. You may use it for private study, scholarship, research or language learning purposes only