» » »

Hysteria Bass tabs (ver.1)

Artists:  A B C D E F G H I J K L M N O P Q R S T U V W X Y Z # 

Hysteria Bass tabs (ver.1)

Ceremony
Rating:
0/5 (0 votes)

Hard to play? Try these video lessons and learn fast.
                Band: Ceremony

Intro
Long, single notes and slides.
G-------------------------------------------------------------------------|
D-------------------------------------------------------------------------|
A-------4-------6--------6////18------6-------4---------------------------|
E-6-----------------------------------------------------6-----------------|  x1

Verse
Only guitar and drums for the first 4 times, jump in with the vocals. "How will we survive..."
G-------------------------------------------------------------------------|
D-------------------------------------------------------------------------|
A----4-4-6666--6-6-4-4----------------------------------------------------|
E-6-6-------------------6666----------------------------------------------| x4

Chorus
"Hysteria, Hysteria"
G---------------------------------------------------------------|
D---------------------------------------------------------------|
A----------------4----------------------------------------------|
E--4-4-4-4-4-4-------6-6-6-6-6-6-6-6----------------------------|     x4

Verse x4 ("No birth without blood...")

Chorus x4 ("Hysteria, Hysteria")

Outro
After the second chorus the drums go into a rhythm very much alike to the one in the 
intro. After 4 rounds the "Ooh's" come in. After 4 rounds of "Ooh's" The bass, guitar and 
vocals kick in.
"Hysteria, Hysteria"
G----------------------------------------------------------------|
D----------------------------------------------------------------|
A-----4-4-6-6-6-6-6-6-4-4----------------------------------------|
E-6-6----------------------6-6-6-6-------------------------------| x4

End on
G------|
D------|
A------|
E--6---|

I was just messing around with this song and figured I could share the tab.
The song is, as you can see, really straight forward. The bassist does play some licks 
during the verses that I couldn't really tab out. Just fool around with 4's and 6's on 
the E,A and D strings.
            
Hard to play? Try these video lessons and learn fast. | Correct




comments powered by Disqus
↑ Back to top | Tablatures and chords are parodies/interpretations of the original songs. You may use it for private study, scholarship, research or language learning purposes only