» » »

Dead Moon California Tabs (ver.2)

Artists:  A B C D E F G H I J K L M N O P Q R S T U V W X Y Z # 

Dead Moon California Tabs (ver.2)

Ceremony
Rating:
0/5 (0 votes)

Hard to play? Try these video lessons and learn fast.
                -------------------------------------------------------------------------------
                         Dead Moon California - Ceremony
-------------------------------------------------------------------------------

Tuning:Half Step Down

First, the bass part:

G|---------------------------------------------------------------------------|
D|---------------------------------------------------------------------------|
A|---3----2----1-------------------------------------------------------------|
E|0-3-3--2-2--1-1-0----------------------------------------------------------|

Then, Guitar basically mimics the bass


e|---------------------------------------------------------------------------|
B|---------------------------------------------------------------------------|
G|---------------------------------------------------------------------------|
D|2~2~2~2--------------------------------------------------------------------|
A|2~2~2~2--3----2----1-------------------------------------------------------|
E|0~0~0~0-3-3--2-2--1-1------------------------------------------------------|


let all those open Eb5's ring out.
            
Hard to play? Try these video lessons and learn fast. | Correct




comments powered by Disqus
↑ Back to top | Tablatures and chords are parodies/interpretations of the original songs. You may use it for private study, scholarship, research or language learning purposes only