» » »

Celldweller, Under My Feet Tabs (ver.1)

Artists:  A B C D E F G H I J K L M N O P Q R S T U V W X Y Z # 

Under My Feet Tabs (ver.1)

Celldweller Tabs
Rating:
1/5 (1 vote)
Hard to play? Try these video lessons and learn fast.
                Artist : Celldweller
Song   : Under My Feet
Album  : Celldweller (self-titled)
Tuning : Drop C

Intro
D|-----------------------------------------------------------------|
A|-----------------------------------------------------------------|
F|----4--------------4--------------------0------------------------|
C|-------0--------2--------2-----------2---------------0-----------|
G|-2--------2--3-------0------------3--------3--0-------------0----|
C|-------------------------------------------------11-----11-------|

Verse
D|---------------------------------------------------------------------------------|
A|---------------------------------------------------------------------------------|
F|---------------------------------------------------------------------------------|
C|---------------------------------------------------------------------------------|
G|2-2-2-2-2-2-2-2-2-2-2-2-2-2-2-2---9--9--9--9--9--9--9--9--9--9--9--9--9--9--9--9-|
C|2-2-2-2-2-2-2-2-2-2-2-2-2-2-2-2--12-12-12-12-12-12-12-12-12-12-12-12-12-12-12-12-|

D|------------------------------------------------|
A|------------------------------------------------|
F|------------------------------------------------|
C|------------------------------------------------|
G|-0--0--0--0--0--0--0--0--0--0--0--0--0--0--0--0-|
C|11-11-11-11-11-11-11-11-11-11-11-11-11-11-11-11-|

Chorus
D|------------------------------------------------------------|
A|------------------------------------------------------------|
F|----------------------------------4--4--4---11--11----7--7--|
C|-2--2--2----5--5--5----0--0--0----4--4--4---11--11----7--7--|
G|-2--2--2----5--5--5----0--0--0----2--2--2----9---9----5--5--|
C|-2--2--2----5--5--5----0--0--0------------------------------|


D|-------------------------------------------|
A|-------------------------------------------|
F|-5-5-5-5-5-5-5-5---------------------------|
C|-5-5-5-5-5-5-5-5----5-5-5-5----7-7-7-7-----|
G|-3-3-3-3-3-3-3-3----5-5-5-5----7-7-7-7-----|
C|--------------------5-5-5-5----7-7-7-7-----|


Bridge Gtr.1
D|--------------------------------------------------------------|
A|--------------------------------------------------------------|
F|11-11-11---12-12-12---14-14-14---16-16-16----9--9---11-11-----|
C|-x--x--x----x--x--x----x--x--x----x--x--x----x--x----x--x-----|
G|-9--9--9---10-10-10---12-12-12---14-14-14----7--7----9--9-----|
C|-0--0--0----0--0--0----0--0--0----0--0--0----0--0----0--0-----|

 Gtr.2
D|--------------------------------------------------------------------|
A|--------------------------------------------------------------------|
F|-7-7-7-7-7-7-7-7-7-7-7-7-7-7-7-7---7-7-7-7-7-7-7-7-7-7-7-7-7-7-7-7--|
C|-7-7-7-7-7-7-7-7-7-7-7-7-7-7-7-7---5-5-5-5-5-5-5-5-5-5-5-5-5-5-5-5--|
G|-5-5-5-5-5-5-5-5-5-5-5-5-5-5-5-5---3-3-3-3-3-3-3-3-3-3-3-3-3-3-3-3--|
C|-0-0-0-0-0-0-0-0-0-0-0-0-0-0-0-0------------------------------------|


Outro
D|----------------------------------------------------------------|
A|----------------------------------------------------------------|
F|----4--------------4--------------------0---------------0-------|
C|-------0--------2-------2------------2---------------0----------|
G|-2--------2--3-------0------------3--------3--0-----------------|
C|-------------------------------------------------11--------11---|


D|------------------------------------------------------------------------------------|
A|------------------------------------------------------------------------------------|
F|------------------------------------------------------------------------------------|
C|------------------------------------------------------------------------------------|
G|2-2-2-2-2-2-2-2-2-2-2-2-2-2-2-2--9--9--9--9--9--9--9--9--9--9--9--9--9--9--9--9---0-|
C|2-2-2-2-2-2-2-2-2-2-2-2-2-2-2-2-12-12-12-12-12-12-12-12-12-12-12-12-12-12-12-12--11-|

And thats it.
            

comments powered by Disqus
↑ Back to top | Celldweller Tabs for Under My Feet. Lyrics for acoustic guitar and electric guitar. Tablatures and chords are parodies/interpretations of the original songs. You may use it for private study, scholarship, research or language learning purposes only