>
 >
One Good Reason

One Good Reason Guitar Tabs

Celldweller - One Good Reason chords, tabs, tablatures, lyrics

Guitar lessons | Add/correct | Request | Top 50 tabs Artists:  A B C D E F G H I J K L M N O P Q R S T U V W X Y Z 0-9

One Good Reason Guitar Tabs – Celldweller

CD, Sheet music, Poster

Do you like One Good Reason? Share with your friends now
Tabs
Celldweller
Celldweller
Dropped Bb (or A#) [Bb-F-Bb-Eb-G-C]



Intro with bends
C |------------------------------------------|
G |------------------------------------------|
Eb|------------------------------------------|
Bb|------------------------------------------|
F |-----------------------5------------------|
Bb|-2-----2----2----2-------5--2----2----2-2-|


Main Riff Verse
C |--------------------------|
G |--------------------------|
Eb|--------------------------|
Bb|-0h2-22-2p1-11-1/3-33-----|
F |-0h2-22-2p1-11-1/3-33-5^^-|
Bb|-0h2-22-2p1-11-1/3-33-----|


Chorus
C |----------------------------|
G |----------------------------|
Eb|----------------------------|
Bb|-6-5-3-2-0h2---7-10-3-2-0h2-|
F |-6-5-3-2-0h2---7-10-3-2-0h2-|
Bb|-6-5-3-2-0h2---7-10-3-2-0h2-|


1st Post Chorus
C |---------------------------------|
G |---------------------------------|
Eb|-9^^--9^^-(9)^^---9^^--9^^-(9)^^-|
Bb|---------------------------------|
F |---------------------------------|
Bb|---------------------------------|


Main Riff Verse
C |--------------------------|
G |--------------------------|
Eb|--------------------------|
Bb|-0h2-22-2p1-11-1/3-33-----|
F |-0h2-22-2p1-11-1/3-33-5^^-|
Bb|-0h2-22-2p1-11-1/3-33-----|



Chorus
C |----------------------------|
G |----------------------------|
Eb|----------------------------|
Bb|-6-5-3-2-0h2---7-10-3-2-0h2-|
F |-6-5-3-2-0h2---7-10-3-2-0h2-|
Bb|-6-5-3-2-0h2---7-10-3-2-0h2-|



Interlude wah wah 4x
C |---------------------|
G |---------------------|
Eb|---------------------|
Bb|---------------------|
F |--------5----5-----0-|
Bb|-2--2-2---5--0---2---|

Lead 2x
C |-12----------------|
G |-15(bend up to 16)-|
Eb|-------------------|
Bb|-------------------|
F |-------------------|
Bb|-------------------|



Bridge
(All 1x)
C |--------------------------|
G |--------------------------|
Eb|--------------------------|
Bb|--------------------------|
F |---------5----------------|
Bb|-2--5/2----5--2--5/2-//7^-|

C |---------------------------|
G |---------------------------|
Eb|---------------------------|
Bb|---------------------------|
F |---------5-----------------|
Bb|-2--5/2----5--2--5/2-//10^-|

C |--------------------------|
G |--------------------------|
Eb|--------------------------|
Bb|--------------------------|
F |---------5----------------|
Bb|-2--5/2----5--2--5/2-//7^-|

C |-----------------|
G |-----------------|
Eb|-----------------|
Bb|--------------2--|
F |--------5-----2--|
Bb|-2/5/2----5---2--|




Pre-3rd_Chorus
C |-----------------------------|
G |-----------------------------|
Eb|-----------------------------|
Bb|-222222222222222222222222222-|
F |-222222222222222222222222222-|
Bb|-222222222222222222222222222-|
    ...........................


Chorus
C |----------------------------|
G |----------------------------|
Eb|----------------------------|
Bb|-6-5-3-2-0h2---7-10-3-2-0h2-|
F |-6-5-3-2-0h2---7-10-3-2-0h2-|
Bb|-6-5-3-2-0h2---7-10-3-2-0h2-|


Main Riff
C |--------------------------|
G |--------------------------|
Eb|--------------------------|
Bb|-0h2-22-2p1-11-1/3-33-----|
F |-0h2-22-2p1-11-1/3-33-5^^-|
Bb|-0h2-22-2p1-11-1/3-33-----|

Main Riff Lead (starting at 2:27min) W/Flanger
C |---------------------------------------------------|
G |---------------------------------------------------|
Eb|-9999999999999999-12121212121212121212121212121212-|
Bb|-xxxxxxxxxxxxxxxx-x-x-x-x-x-x-x-x-x-x-x-x-x-x-x-x--|
F |-7777777777777777-10101010101010101010101010101010-|
Bb|---------------------------------------------------|
*ten's and twelves there*




Starting at 2:47...
C |------------------------------------------------------------|
G |------------------------------------------------------------|
Eb|------------------------------------------------------------|
Bb|-0h2-22--2p0-00--0h2-22--2p0-00--0h2-22--2p0-00--1/3-33-----|
F |-0h2-22--2p0-00--0h2-22--2p0-00--0h2-22--2p0-00--1/3-33-5^^-|
Bb|-0h2-22--2p0-00--0h2-22--2p0-00--0h2-22--2p0-00--1/3-33-----|
*Main Lead Continues...*


Starting at 3:05...
C |---------------------------------------------|
G |---------------------------------------------|
Eb|---------------------------------------------|
Bb|-0h2-22-2---0h2-22-2---0h2-22-2---1/3-33-----| 2x
F |-0h2-22-2---0h2-22-2---0h2-22-2---1/3-33-5^^-|
Bb|-0h2-22-2---0h2-22-2---0h2-22-2---1/3-33-----|

*main Lead Comes Back after 2 plays*

Starts at 3:15...
C |-------------------------------------------------|
G |-------------------------------------------------|
Eb|-------------------------------------------------|
Bb|-0h2-22-2---0h2-22-2--0h2-22--2p0-00--1/3-33-----| 1x
F |-0h2-22-2---0h2-22-2--0h2-22--2p0-00--1/3-33-5^^-|
Bb|-0h2-22-2---0h2-22-2--0h2-22--2p0-00--1/3-33-----|

Starting at 3:20...
C |------------------------------------------------------------|
G |------------------------------------------------------------|
Eb|------------------------------------------------------------|
Bb|-0h2-22--2p0-00--0h2-22--2p0-00--0h2-22--2p0-00--1/3-33-----|
F |-0h2-22--2p0-00--0h2-22--2p0-00--0h2-22--2p0-00--1/3-33-5^^-|
Bb|-0h2-22--2p0-00--0h2-22--2p0-00--0h2-22--2p0-00--1/3-33-----|

starting at 3:25...
C |-------------------------------------------------------|
G |-------------------------------------------------------|
Eb|-------------------------------------------------------|
Bb|-0h2-22--2p0-00--0h2-22--2p0-00-------------1/3-33-----|
F |-0h2-22--2p0-00--0h2-22--2p0-00----2----2---1/3-33-5^^-|
Bb|-0h2-22--2p0-00--0h2-22--2p0-00--0h2----2---1/3-33-----|

3:30...
C |--------------------------------------------|
G |--------------------------------------------|
Eb|--------------------------------------------|
Bb|-0h2-2---0h2-2--0h2-22--2/1-11---1/3-33-----|
F |-0h2-2---0h2-2--0h2-22--2/1-11---1/3-33-5^^-|
Bb|-0h2-2---0h2-2--0h2-22--2/1-11---1/3-33-----|


Ending with tons of Flanger
C |--------------------------------------------|
G |--------------------------------------------|
Eb|-9/12-1212-12/9-999999---9---9---9---9---9--|
Bb|-x/x--x-x--x-/x-xxxxxx---x---x---x---x---x--|
F |-7/10-1010-10/7-777777---7---7---7---7---7--|
Bb|--------------------------------------------|


...And There You have it =D





Comments


Popular Celldweller tabs & chords
Frozen Bass Tabs
Goodbye Bass Tabs
Afraid This Time 1 Tabs
Frozen 2 Tabs
Goodbye Tabs
Kill The Sound Tabs
Narrow Escape Tabs
Pulsar Tabs
Tainted Tabs
So Long Sentiment Ukulele


Song lyrics



↑ Back to top | Tablatures and chords are parodies/interpretations of the original songs. You may use it for private study, scholarship, research or language learning purposes only
© 2014 AZChords.com Contact us | Privacy policy | DMCA | Add/correct tabs | Request tabs | Top 50 tabs