» » »

Cave In, The Calypso Tabs (ver.1)

Artists:  A B C D E F G H I J K L M N O P Q R S T U V W X Y Z # 

The Calypso Tabs (ver.1)

Cave In Tabs
Rating:
0/5 (0 votes)
Hard to play? Try these video lessons and learn fast.
                THIS IS ONLY THE INTRO ITS NEARLY RIGHT ILL SEND IN THE REST IF I CAN 
FIGURE IT OUT.

D
----2-------------          
------3-----------
--2-----2---------       PLAY 4 TIMES
--0---------------
--0---------------
------------------



F7
-----0------------
-------1----------
--2------2--------      PLAY 2 TIMES
--3---------------
--0---------------
------------------

THEN YOU PLAY THE D CHORD BIT FOUR TIMES AGAIN,

THEN PLAY THE F7 CHORD BIT ONCE,THEN YOU PLAY

THIS-

--3--2--0---------------
--3--3--3---------------
--2--2--2---------------
------------------------
------------------------
------------------------

THEN YOU STRUM A CHORD WHICH I HAVENT FIGURED OUT YET,
BUT I JUST PLAY F7.
AFTER THAT YOU PLAY THE D CHORD BIT 4 TIMES.


CAVE IN RULE !!!!!!!!!!!!!!!!!!!!!!!!!!!!!!!!!!
            

comments powered by Disqus
↑ Back to top | Cave In Tabs for The Calypso. Lyrics for acoustic guitar and electric guitar. Tablatures and chords are parodies/interpretations of the original songs. You may use it for private study, scholarship, research or language learning purposes only