» » »

Sea Frost Bass tabs (ver.1)

Artists:  A B C D E F G H I J K L M N O P Q R S T U V W X Y Z # 

Sea Frost Bass tabs (ver.1)

Cave In
Rating:
0/5 (0 votes)

Hard to play? Try these video lessons and learn fast.
                
Intro / Verse
Gb/------------------------------------
Db/------------------------------------
Ab/--5--0--3--5------------------------
Eb/-------------------3-----5----------

Gb/------------------------------------
Db/------------------------------------
Ab/--5--0--3--5--------------------0--3
Eb/-------------------3-----2----------


this is only a short part of the song, but since there aren't
many cave in bass tabs around here, i thought i would share
even if it's incomplete...
            
Hard to play? Try these video lessons and learn fast. | Correct




comments powered by Disqus
↑ Back to top | Tablatures and chords are parodies/interpretations of the original songs. You may use it for private study, scholarship, research or language learning purposes only