» » »

Rubber And Glue Tabs (ver.1)

Artists:  A B C D E F G H I J K L M N O P Q R S T U V W X Y Z # 

Rubber And Glue Tabs (ver.1)

Cave In
Rating:
4/5 (1 vote)

Hard to play? Try these video lessons and learn fast.
                Kenny Fabritius
Band: Cave In
Tunning: E Flat





Note: This Song is made up of two guitar parts.  When The GUITAR II has nuthing to play
it can play the main or GUITAR I part along.  Enjoy.





GUITAR I
INTRO Riff:
Eb--3-3-3-3-3-1111--3-3-3-3-3-1111--3-3-3-3-3-1111--3-3-3-3-3-111-4444--]
Ab--3-3-3-3-3-2222--3-3-3-3-3-2222--3-3-3-3-3-2222--3-3-3-3-3-222-6666--]
Db--2-2-2-2-2-2222--2-2-2-2-2-2222--2-2-2-2-2-2222--2-2-2-2-2-222-6666--]
Gb--1/0-0-0-0-------1/0-0-0-0-------1/0-0-0-0-------1/0-0-0-0-----------]
Bb--x-x-x-x-x-------x-x-x-x-x-------x-x-x-x-x-------x-x-x-x-x-----------]
eb--x-x-x-x-x-------x-x-x-x-x-------x-x-x-x-x-------x-x-x-x-x-----------]





GUITAR I
VERSE Riff: This Riff is is only broken up because there is a part in the song which
the guitar solos on Part A (THe volume decrases) then chimes in booming on Part B. 
This will be marked in the order chart at the bottom with a *.  When playing the Verse
in the rest of the sony ignore the 
Part A and Part B and just play the whole line as the Verse. 
   Part A                                  Part B
Eb--3-3-3-3-3-1111--3-3-3-3-3-111-4444--|--3-3-3-3-3-444-6666--]
Ab--3-3-3-3-3-2222--3-3-3-3-3-222-6666--|--3-3-3-3-3-666-8888--]
Db--2-2-2-2-2-2222--2-2-2-2-2-222-6666--|--2-2-2-2-2-888-8888--]
Gb--1/0-0-0-0-------1/0-0-0-0-----------|--1/0-0-0-0-----------]
Bb--x-x-x-x-x-------x-x-x-x-x-----------|--x-x-x-x-x-----------]
eb--x-x-x-x-x-------x-x-x-x-x-----------|--x-x-x-x-x-----------]





GUITAR I
TRANSITION Riff:
Eb--4444444--]
Ab--6666666--]
Db--6666666--]
Gb-----------]
Bb-----------]
eb-----------]





GUITAR I
CHORUS Riff: Play in the order of- Part A x1, Part B x1, Part C x1, 
Part A x1, Part B x1, Part D x10.
   Part A                    Part B               Part C        Part D    
Eb-------------------------|--------------------|-------------|--444------]
Ab-------------------------|--------------------|-------------|--666------]
Db-------------------------|--------------------|-------------|--666------]
Gb-------------------------|--------------------|-------------|-----------]
Bb-------------------------|--------------------|-------------|-----------]
eb--3/12-10-8-7-5-4/15-13--|--3/12-10-8-7-8-10--|--12-10-8-5--|-----------]


GUITAR II
CHORUS Riff: Play in the order of- Part A x1, Part B x1, Part C x1, 
Part A x1, Part B x1, Part D x10.
   Part A                   Part B             Part C       Part D
Eb------------------------|------------------|------------|-----------]
Ab------------------------|------------------|------------|-----------]
Db------------------------|------------------|------------|-----------]
Gb------------------------|------------------|------------|-----------]
Bb------------------------|------------------|------------|-----------]
eb--2/11-9-7-6-4-3/14-12--|--2/11-9-7-6-7-9--|--11-9-7-4--|--11-10-8--]





GUITAR I
BRIDGE Riff: Play in the order of- Part A, Part B, Part C, Part A, Part B, 
Part D.
   Part A                     Part B        Part C
Eb--------------------3333--|-------------|--33333333--|
Ab--3333--7777--0000--5555--|--5555-5555--|--55555555--|
Db--5555--9999--2222--5555--|--7777-7777--|--55555555--|
Gb--5555--9999--2222--------|--7777-7777--|------------|
Bb--------------------------|-------------|------------|
eb--------------------------|-------------|------------|

   Part D
  ------------11111-11--]
  --77777777--33333-33--]
  --99999999--33333-33--]
  --99999999------------]
  ----------------------]
  ----------------------]





GUITAR I
ENDING Riff: Play Part A 4x, Then Part B 1x to end the song.
   Part A                  
Eb--3-3-3-3-3--444-6666--|--3----3----3)))--]
Ab--3-3-3-3-3--666-8888--|--3----3----3)))--]
Db--2-2-2-2-2--666-8888--|--2----2----2)))--]
Gb--1/0-0-0-0------------|--1/0--1/0--0)))--]
Bb--x-x-x-x-x------------|------------------]
eb--x-x-x-x-x------------|------------------]


GUITAR II
ENDING Riff:played WHile Guitar Part I Plays Main Riff. Play Part A 4x, Then Part B 1x to end the song.
   Part A
Eb------------------------------|--------------------]
Ab------------------------------|--3----3----3)))))--]
Db------------------------------|--------------------]
Gb--5-5-5-5/8--8--5-5-5-5--5-5--|--6/5--6/5--6/5)))--]
Bb------------------------------|--------------------]
eb--8-8-8-8/1010--8-8-8-8--4-4--|--------------------]





SONG ORDER

GUITAR I                     GUITAR II

INTRO Riff         x1               
VERSE Riff         x1               
TRANS Riff         x1               
VERSE Riff         x1               
TRANSITION Riff    x2               
CHORUS Riff        x1               x1
VERSE Riff A       x1
VERSE Riff B       x1
VERSE Riff         x1
TRANSITION Riff    x1
VERSE Riff         x1
TRANSITION Riff    x1
CHORUS Riff        x1               x1
BRIDGE Riff        x1               x1
CHORUS Riff        x1               x1
VERSE Riff         x1               
ENDING Riff        x1               x1
            
Hard to play? Try these video lessons and learn fast. | Correct




comments powered by Disqus
↑ Back to top | Tablatures and chords are parodies/interpretations of the original songs. You may use it for private study, scholarship, research or language learning purposes only