» » »

Cave In, Moral Eclipse Tabs (ver.1)

Artists:  A B C D E F G H I J K L M N O P Q R S T U V W X Y Z # 

Moral Eclipse Tabs (ver.1)

Cave In Tabs
 Rating:
4/5 (4 votes)
Moral Eclipse lessons Tabs too difficult? Try these video lessons and learn fast
1
                CAVE IN - MORAL ECLIPSE

    eb|-------------------------------------|
    Bb|-------------------------------------|
GTR Gb|-----------3-2-1-3---2-3-----5-4-----|    
 1  Db|-----3-2-1---------------4-7-----6-3-|              
    Ab|---2---------------------------------|
    Eb|-0-----------------------------------|

    eb|-------------------------------------|
    Bb|-----------4-3-2-4---3-4-----6-5-----|
GTR Gb|-----3-2-1---------------4-7-----6-3-|    
 2  Db|---2---------------------------------|              
    Ab|-0-----------------------------------|
    Eb|-------------------------------------|

    eb|---------------------------------|
    Bb|---------------------------------|
GTR Gb|---------------------------------|    
1+2 Db|-2-3-2-1--pick slide-------3-3-6-|              
    Ab|---------------------------3-3-6-|
    Eb|---------------------------1-1-4-|

    eb|---------------------------|---------|
    Bb|---------------------------|---------|
GTR Gb|---------------------------|-8-8-8-8-|  
1+2 Db|-3-------------------------|-8-8-8-8-| 1,3            
    Ab|-3-2-2-222-222-222-333-2-1-|-6-6-6-6-|
    Eb|-1-0-0-000-000-000-333-2-1-|---------|
          P M P M P M P M P M P M

    eb|------------------|-------------|
    Bb|------------------|-------------|
GTR Gb|------------------|-3---3-6---6-|    
1+2 Db|-3\---------------|-1---1-4---4-| 2,4            
    Ab|-3\2-2-222-33-2-1-|---3-----6---|
    Eb|-1\0-0-000-33-2-1-|-------------|
          P M P M PM P M

repeat all of the above

--------------------------------------------------------------

    eb|-------------------------------------|
    Bb|-------------------------------------|
GTR Gb|-----------3-2-1-3---2-3-----5-4-----|    
 1  Db|-----3-2-1---------------4-7-----6-3-|              
    Ab|---2---------------------------------|
    Eb|-0-----------------------------------|

    eb|-------------------------------------|
    Bb|-----------4-3-2-4---3-4-----6-5-----|
GTR Gb|-----3-2-1---------------4-7-----6-3-|    
 2  Db|---2---------------------------------|     x2          
    Ab|-0-----------------------------------|
    Eb|-------------------------------------|

    eb|---------------------------------|
    Bb|---------------------------------|
GTR Gb|---------------------------------|    
1+2 Db|-2-3-2-1--pick slide-------3-3-6-|              
    Ab|---------------------------3-3-6-|
    Eb|---------------------------1-1-4-|

----------------------------------------------------------------

    eb|--------------------------------------------|
    Bb|--------------------------------------------|
GTR Gb|--------------------------------------------|    
 1  Db|------------------------------------4-7-5-8-|              
    Ab|------------------------------------4-7-5-8-|
    Eb|-000000000-000000000-00-00-0-000-00-2-5-3-6-|

    eb|----------------------------------------------|
    Bb|----------------------------------------------|
GTR Gb|----------------------------------------------|    
 2  Db|------------------------------------4-7-------| x3             
    Ab|------------------------------------4-7-------|
    Eb|-000000000-000000000-00-00-0-000-00-2-5-3\-/6-|

    eb|------------------------------------|
    Bb|------------------------------------|
GTR Gb|------------------------------------|    
1+2 Db|------------------------------------|            
    Ab|------------------------------------|
    Eb|-000000000-000000000-00-00-0-000-00-|


    eb|--------------------------------|
    Bb|--------------------------------|
GTR Gb|--------------------------------|    
1+2 Db|-------------------------2----2-|              
    Ab|-------------------------2----2-|
    Eb|-000-000-000-000-000-000-0----0-|
                                     PM

    eb|-----------------------------------------|
    Bb|-----------------------------------------|
GTR Gb|-----------------------------------------|    
1+2 Db|-----------------------------------------| x3            
    Ab|---------------------------------5-2---5-|
    Eb|-0-3-4-1-2-4-5-2-3-5-6-3-4-6-7-4-----0---|
                                           PM

    eb|-------------------------------------|
    Bb|-------------------------------------|
GTR Gb|-------------------------------------|    
1+2 Db|-------------------------------------|             
    Ab|---------------------------------5-2-|
    Eb|-0-3-4-1-2-4-5-2-3-5-6-3-4-6-7-4-----|
    
    eb|-------------------- x2 ------------------------------|
    Bb|------------------------------------------------------|
GTR Gb|------------------------------------------------------|    
1+2 Db|2-3-3-6-6-----2-3-3-7-7-7-----2-3-3-6-6---------------|              
    Ab|2-3-3-3-3-----2-3-3-3-3-3-----2-3-3-3-3---------------|
    Eb|0-1-1-4-4-4\1-0-1-1-5-5-5-5\1-0-1-1-4-4-4\1/10-5-5-5-4|

    eb|------------------------------------------------------|
    Bb|------------------------------------------------------|
GTR Gb|------------------------------------------------------|    
 1  Db|2-3-3-6-6-----2-3-3-7-7-7-----2-3-3-6-6---------------|              
    Ab|2-3-3-3-3-----2-3-3-3-3-3-----2-3-3-3-3---------------|
    Eb|0-1-1-4-4-4\1-0-1-1-5-5-5-5\1-0-1-1-4-4-4\1/10-5-5-5-4|

    eb|-------------------------------------------------------|
    Bb|-------------------------------------------------------|
GTR Gb|-------------------------------------------------------|    
 2  Db|2-3-3-6-6-----2-3-3-10-10-10-9-2-3-3-6-6---------------|              
    Ab|2-3-3-3-3-----2-3-3-7--7--7--7-2-3-3-3-3---------------|
    Eb|0-1-1-4-4-4\1-0-1-1-5--5--5--5-0-1-1-4-4-4\1/10-5-5-5-4|

    eb|------------------------------------------------------|
    Bb|------------------------------------------------------|
GTR Gb|------------------------------------------------------|    
1+2 Db|2-3-3-6-6-----2-3-3-7-7-7-----2-3-3-6-6---------------|              
    Ab|2-3-3-3-3-----2-3-3-3-3-3-----2-3-3-3-3---------------|
    Eb|0-1-1-4-4-4\1-0-1-1-5-5-5-5\1-0-1-1-4-4-4\1/10-5-5-5-4|
    eb|---------------|
    Bb|---------------|
GTR Gb|-3-------------|    
1+2 Db|-3-3---7-6-5-2-| x2              
    Ab|-1-3---7-6-5-2-|
    Eb|---1-0-5-4-3-0-|

    eb|----------------------|
    Bb|----------------------|
GTR Gb|-------9-8-6-5--------|    
1+2 Db|-3-2---9-8-6-5--------|              
    Ab|-3-2---7-6-4-3----4BD-|
    Eb|-1-0-0----------------|
            PM

    eb|---------------|
    Bb|---------------|
GTR Gb|-3-------------|    
1+2 Db|-3-3---7-6-5-2-| x2              
    Ab|-1-3---7-6-5-2-|
    Eb|---1-0-5-4-3-0-|

    eb|---------------------------------|
    Bb|---------------------------------|
GTR Gb|-------9-8-6-5-4-3---------------|    
1+2 Db|-3-2---9-8-6-5-4-3-------7-6-5-2-|              
    Ab|-3-2---7-6-4-3-2-1-2-2-2-7-6-5-2-|
    Eb|-1-0-0-------------0-0-0-5-4-3-0-|
            PM            P MPM

    eb|---------------|
    Bb|---------------|
GTR Gb|-3-------------|    
1+2 Db|-3-3---7-6-5-2-|               
    Ab|-1-3---7-6-5-2-|
    Eb|---1-0-5-4-3-0-|

    eb|----------------------|
    Bb|----------------------|
GTR Gb|-------9-8-6-5--------|    
1+2 Db|-3-2---9-8-6-5--------|              
    Ab|-3-2---7-6-4-3----4BD-|
    Eb|-1-0-0----------------|
            PM

    eb|---------------|
    Bb|---------------|
GTR Gb|-3-------------|    
1+2 Db|-3-3---7-6-5-2-| x2               
    Ab|-1-3---7-6-5-2-|
    Eb|---1-0-5-4-3-0-|

    eb|---------------------|
    Bb|---------------------|
GTR Gb|-------9-8-----------|    
1+2 Db|-3-2---9-8-----------|              
    Ab|-3-2---7-6-11-10-9-8-|
    Eb|-1-0-0-----11-10-9-8-|
            PM    PM PM P M

END




   
            
Submit corrections

comments powered by Disqus
↑ Back to top | Cave In Tabs for Moral Eclipse. Lyrics for acoustic guitar and electric guitar. 1 Tablatures and chords are parodies/interpretations of the original songs. You may use it for private study, scholarship, research or language learning purposes only