>
 >
Lost In The Air

Lost In The Air Guitar Tabs

Cave In - Lost In The Air chords, tabs, tablatures, lyrics

Guitar lessons | Add/correct | Request | Top 50 tabs Artists:  A B C D E F G H I J K L M N O P Q R S T U V W X Y Z 0-9

Lost In The Air Guitar Tabs – Cave In

CD, Sheet music, Poster

Do you like Lost In The Air? Share with your friends now
Tabs
standard tuning

-|-9b10------|----0----0----|---------------|---0-----0---|-------------------
-|-----------|----2----3----|---------2-3-2-|---2-----3---|-------------------
-|-----------|----2----2----|-----2-4-------|---2-----2---|-------------------
-|-----------|----2----0----|-2-4-----------|---2-----0---|-------------------
-|-----------|----0---------|---------------|---0---------|-------------------
-|-----------|--------------|---------------|-------------|-------------------
 Intro Gt. 2     ntro Gt. 1   Intro Gt. 2     Both Guitars                    

-|--------------------------------------|--10---10-----------|----------------
-|--------------------------------------|-----8----8-7-8-7-8-|----------------
-|---2---2-------4----4---2---2---------|--------------------|----------------
-|---2---2-------4----4---2---2---5---5-|--------------------|----------------
-|-0-0-0-0---2---2-2--2-0-0-0-0---5---5-|--------------------|----------------
-|------------------------------3-3-3-3-|--------------------|----------------
 Verse Gt. 1 (hard to hear, not right)   Verse Gt. 2 play twice               

-|-10---10-------10-12-10-9----------------|--0-----------------|-------------
-|----8----8-7-8------------12-10-12-10----|--2-----------------|-------------
-|--------------------------------------12-|--2-----------------|-------------
-|-----------------------------------------|--2-----------------|-------------
-|-----------------------------------------|--0-----------------|-------------
-|-----------------------------------------|--------------------|-------------
  Verse Gt. 2 3rd time               Verse   into the ground...               

--|-------------10-12-10-10b\--------------------|----------------------------
--|-------12-14------------------------------2-3-|----------------------------
--|-12-14----------------------4b6-2-----2-4-----|----------------------------
--|----------------------------------2-4---------|----------------------------
--|----------------------------------------------|----------------------------
--|----------------------------------------------|----------------------------
   Chorus Gt. 1                                                               

-|-------3--3--3----2--2--2--2--2-----0-0-0-0-0-|-----------------------------
-|-xxxx--3--3--3----3--3--3--3--3-----2-2-2-2-2-|-----------------------------
-|-xxxx--0--0--0----2--2--2--2--2-----2-2-2-2-2-|-----------------------------
-|-xxxx--0--0--0----0--0--0--0--0-----2-2-2-2-2-|-----------------------------
-|-xxxx--2--2--2----------------------0-0-0-0-0-|-----------------------------
-|-------3--3--3--------------------------------|-----------------------------
   Gt. 1 What a day to be lost in the airrrrrrr.                              

-|----------------------------------------------|-----------------------------
-|-xxxx-----------------------------------------|-----------------------------
-|-xxxx-------------7--7--7--7--7---------------|-----------------------------
-|-xxxx--5--5--5----7--7--7--7--7-----7-7-7-7-7-|-----------------------------
-|-xxxx--5--5--5----5--5--5--5--5-----7-7-7-7-7-|-----------------------------
-|-------3--3--3----------------------5-5-5-5-5-|-----------------------------
   Gt.2 What a day to be lost in the airrrrrrrr.   Repeat verse and chorus.   

-|-----------------------------------------|----------------------------|-----
-|-----------------------------------------|----------------------------|-----
-|-6/---7/---9/---11\---6/---7\---2--2-4-2-|-6/---7/---9/---12-12-12-12-|-----
-|-x/---x/---x/---x-\---x/---x\---x--x-x-x-|-x/---x/---x/---x--x--x--x--|-----
-|-4/---5/---7/---9-\---4/---5\---0--0-2-0-|-4/---5/---7/---10-10-10-10-|-----
-|-----------------------------------------|----------------------------|-----
  Bridge chords figure out rhythm yourself                                    

-|-10-12-10-9-10-9----9-----------------15-14-12-------12-------|-------------
-|-----------------12---12-10-12-10--------------15-15----15-14-|-------------
-|----------------------------------12--------------------------|-------------
-|--------------------------------------------------------------|-------------
-|--------------------------------------------------------------|-------------
-|--------------------------------------------------------------|-------------
  Bridge solo                                                                 

-|-10-12-10-9-10-9----9----------------15b17-|-------------10-12-10-10b\------
-|-----------------12---12-10-12-10----------|-------12-14--------------------
-|----------------------------------12-------|-12-14--------------------------
-|-------------------------------------------|--------------------------------
-|-------------------------------------------|--------------------------------
-|-------------------------------------------|--------------------------------
 Bridge solo continued                                                Lifted  

---------------------|-------3--3--3----2--2--2--2--2-----------------------|-
-----------------2-3-|-xxxx--3--3--3----3--3--3--3--3-----------------------|-
--4b6-2------2-4-----|-xxxx--0--0--0----2--2--2--2--2-----2--4-4-2-4-4-4-4-4|-
---------2-4---------|-xxxx--0--0--0----0--0--0--0--0-----2--4-4-2-4-4-4-4-4|-
---------------------|-xxxx--2--2--2----------------------0--2-2-0-2-2-2-2-2|-
---------------------|-------3--3--3----------------------------------------|-
 awayyy                change in chorus towards end       aaaaiaaaiiiaairrr   

-|--3-3-3--2-2-2-2-2-2-2----3-3-3--2-2-2-2-2-2-2--3-3-3--2-2-2-2-2-2-2--0-0-0-
-|--3-3-3--3-3-3-3-3-3-3----3-3-3--3-3-3-3-3-3-3--3-3-3--3-3-3-3-3-3-3--2-2-2-
-|--0-0-0--2-2-2-2-2-2-2----0-0-0--2-2-2-2-2-2-2--0-0-0--2-2-2-2-2-2-2--2-2-2-
-|--0-0-0--0-0-0-0-0-0-0----0-0-0--0-0-0-0-0-0-0--0-0-0--0-0-0-0-0-0-0--2-2-2-
-|--2-2-2-------------------2-2-2-----------------2-2-2-----------------0-0-0-
-|--3-3-3-------------------3-3-3-----------------3-3-3-----------------------
    what a day to be now well what a day to be what a day to be lost in air   

-|-10-12-10-9-10-9----9----------------------9--------------------------------
-|-----------------12---12-10-12-10----10-12----------------------------------
-|----------------------------------12----------------------------------------
-|----------------------------------------------------------------------------
-|----------------------------------------------------------------------------
-|----------------------------------------------------------------------------
  Ending solo                                                                 

-|-10-12-10-9-10-9----9----------------------9--------------------------------
-|-----------------12---12-10-12-10----10-12----------------------------------
-|----------------------------------12----------------------------------------
-|----------------------------------------------------------------------------
-|----------------------------------------------------------------------------
-|----------------------------------------------------------------------------
  Ending solo continued                                                       

-|-10-12-10-9-10----9-10-12-10-9-10----12-12-12/-14b15-|----------------------
-|---------------12-----------------12-----------------|----------2-3---------
-|-----------------------------------------------------|------2-4-------------
-|-----------------------------------------------------|--2-4-----------------
-|-----------------------------------------------------|----------------------
-|-----------------------------------------------------|----------------------
                                                     end with this let ring





Comments


Popular Cave In tabs & chords
Sea Frost Bass Tabs
Dark Driving Tabs
Flypaper Tabs
Inspire 1 Tabs
Juggernaut Tabs
Moral Eclipse Tabs
Mr Co Dexterity Tabs
New Moon Tabs
Programmed Behind Tabs
The Calypso Tabs


Song lyrics



↑ Back to top | Tablatures and chords are parodies/interpretations of the original songs. You may use it for private study, scholarship, research or language learning purposes only
© 2014 AZChords.com Contact us | Privacy policy | DMCA | Add/correct tabs | Request tabs | Top 50 tabs