» » »

Joy Opposities Tabs (ver.1)

Artists:  A B C D E F G H I J K L M N O P Q R S T U V W X Y Z # 

Joy Opposities Tabs (ver.1)

Cave In
Rating:
0/5 (0 votes)

Hard to play? Try these video lessons and learn fast.
                Hi I'm Trithor86 from italy  (C.V.L.)
 
 Welcome To Via Siena "Rulex" TABS

 INTRO

 e|---------------|
 B|---------------|
 G|---------------|
 D|-7--9--11-11---|
 A|-7--9--9--11---|
 E|-5--7--7--9----|

 PART 1

 e|------------------------------------------|
 B|------------------------------------------|
 G|--------6-4-------------------------------|
 D|--7-7-------7-6---6-4-----------------11--|
 A|--7-7-----------------7-6---6-4-------11--|
 E|--5-5---------------------------7-7/9-9---|

 PART 2

 e|---------------------------------|
 B|---------------------------------|
 G|----6-4--------------------------|
 D|--------7-6--6-4-6-7-------------|
 A|---------------------------------|
 E|---------------------------------|

 e|---------------------------------|
 B|---------------------------------|
 G|----6-4----------------4-6-4-----|
 D|--------7-6--6-4-6-7-------------|
 A|---------------------------------|
 E|---------------------------------|

 SOLO

 e|--9b11-9-7-6h7------------7-----7------------|
 B|---------------9--7--------------------------|
 G|--------------------9-8h9---8h9--------------|
 D|-----------------------------------------11--|
 A|-----------------------------------------11--|
 E|-----------------------------------7-7/9-9---|

 e|-6-7-9-9b11-9-7-6h7p6---16-14-----------------------------------------|
 B|----------------------9-------17-17-16---16h17p16-14-12-12/13---------|
 G|----------------------------------------------------------------------|
 D|----------------------------------------------------------------------|
 A|----------------------------------------------------------------------|
 E|----------------------------------------------------------------------|


  DETTO FRA ITALIANI (questa non è di sicuro la migliore tab del mondo)

    
    \      /   |     /\          -----|   |    |-----|   |\   |      /\        |--\   |
     \    /    |    /  \        /         |    |---\     | \  |     /  \       |   \  |
      \  /     |   /----\       \-----\   |    |---/     |  \ |    /----\      |   /  |
       \/      |  /      \      |-----/   |    |-----|   |   \|   /      \     |--/   |

                -----|     /---|   |    |   |   |-----|   |\   |     /\
               /          /        |----|   |   |---\     | \  |    /  \
               \-----\    \        |    |   |   |---/     |  \ |   /----\   
               |-----/     \---|   |    |   |   |-----|   |   \|  /      \
            
Hard to play? Try these video lessons and learn fast. | Correct




comments powered by Disqus
↑ Back to top | Tablatures and chords are parodies/interpretations of the original songs. You may use it for private study, scholarship, research or language learning purposes only