» » »

Cave In, Decay Of The Delay Tabs (ver.1)

Artists:  A B C D E F G H I J K L M N O P Q R S T U V W X Y Z # 

Decay Of The Delay Tabs (ver.1)

Cave In Tabs
Rating:
0/5 (0 votes)
Decay Of The Delay lessons Tabs too difficult? Try these video lessons and learn fast
                Cave-In
Decay of the Delay
Jupiter



Opening Chord, sustained

Eb----0---------|
Bb----0---------|
Gb----0---------|
Db----2---------|
Ab----2---------|
Eb----0---------|



Eb------0---0-----------------------|
Bb------0---0------0----------------|
Gb-----/4---3------------0----------|
Db----------------------------------|
Ab----------------------------------|
Eb----------------------------------|


First Part

Eb----------------15----14-----0-----0-----0-------------------------|
Bb----0----0-----0------0-----17----15----17-------------------------|
Gb---15---16-------------------------------------------- |       X 2-|
Db-------------------------------------------------------------------|
Ab-------------------------------------------------------------------|
Eb-------------------------------------------------------------------|


then...

Eb-----------------15----14-----0-----0----------------------------|
Bb----0----0-------0------0-----17----15-----0-------0-------------|
Gb---15---16--------------------------------14--/----16------------|
Db-----------------------------------------------------------------|
Ab-----------------------------------------------------------------|
Eb-----------------------------------------------------------------|

then...

Eb-----------------15----14-----0-----0------0--------|
Bb----0----0------0------0-----17----15-----17--------|
Gb---15---16------------------------------------------|
Db----------------------------------------------------|
Ab----------------------------------------------------|
Eb----------------------------------------------------|


Second Part

Eb-----------------15----14-----0-----0------0------------------|
Bb----0----0-------0------0-----17----15----17------------------|
Gb---15---16--------------------------------------- |       X 2-|
Db--------------------------------------------------------------|
Ab--------------------------------------------------------------|
Eb--------------------------------------------------------------|



Eb-----------------15----14-----0-----0-----------------------|
Bb----0----0-------0------0-----17----15------0-------0-------|
Gb---15---16----------------------------------14--/--16-------|
Db------------------------------------------------------------|
Ab------------------------------------------------------------|
Eb------------------------------------------------------------|



Eb------------------0------0---------------0--------------------------------|
Bb----0----0-------15-----14-----0--------12-----0------0-------------------|
Gb---15---16---------------------15--------------14-----12------------------|
Db--------------------------------------------------------------12----------|
Ab--------------------------------------------------------------------------|
Eb--------------------------------------------------------------------------|



Sounds pretty good to me, I'll try and tab out the rest and the rhythm part too
            
Submit corrections

comments powered by Disqus
↑ Back to top | Cave In Tabs for Decay Of The Delay. Lyrics for acoustic guitar and electric guitar. Tablatures and chords are parodies/interpretations of the original songs. You may use it for private study, scholarship, research or language learning purposes only