» » »

Hex Bass tabs (ver.1)

Artists:  A B C D E F G H I J K L M N O P Q R S T U V W X Y Z # 

Hex Bass tabs (ver.1)

Cavalera Conspiracy
Rating:
0/5 (0 votes)

Hard to play? Try these video lessons and learn fast.
                Band: Cavalera Conspiracy
Bassist: Joe Duplantier
Tuning: D Tuning

Verse 1

F|---------|
C|---------| x8
G|---------|
D|-5-3-6-3-|


F|---------|
C|---------| x4
G|-6-0-6-7-|
D|---------|


F|--------------------------------|
C|--------------------------------|
G|---------------4444444433333333-|
D|-22222222222222-----------------|


F|---------|
C|---------| x4
G|-6-0-6-7-|
D|---------|


F|--------------------------------|
C|--------------------------------|
G|---------------4444444433333333-|
D|-22222222222222-----------------|

Chorus

F|---------|
C|---------| x8
G|-------2-|
D|-4-1-3---|

Verse 2

F|---------|
C|---------| x8
G|---------|
D|-5-3-6-3-|


F|---------|
C|---------| x4
G|-6-0-6-7-|
D|---------|


F|--------------------------------|
C|--------------------------------|
G|---------------4444444433333333-|
D|-22222222222222-----------------|


F|---------|
C|---------| x4
G|-6-0-6-7-|
D|---------|


F|--------------------------------|
C|--------------------------------|
G|---------------4444444433333333-|
D|-22222222222222-----------------|

Chorus

F|---------|
C|---------| x8
G|-------2-|
D|-4-1-3---|


F|-----------------------------------------------------------------|
C|-----------------------------------------------------------------|
G|-----------------------------------------------------------------|
D|-0-0-0-0-0-0-0-0-0-0-0-0-0-0-0-0-0-0-0-0-0-0-0-0-0-0-0-0-0-0-0-0-|

Verse 3

F|-----------------------------------|-----------------------------------|
C|-----------------------------------|-----------------------------------| x2
G|-8-5-7-----12-9-11-----------------|-8-5-7-----12-9-11-----12-12-12-11-|
D|-------0-0---------0-0-0-0-0-0-0-0-|-------0-0---------0-0-------------|


F|------------------------------------|
C|------------------------------------|
G|-8-7-5-----15-14-12-----------------|
D|-------0-0----------0-0-0-0-0-0-0-0-|
 |                                        x6
F|--------------------------------------|
C|--------------------------------------|
G|-15-12-14-----12-9-11-----12-12-12-11-|
D|----------0-0---------0-0-------------|

Outro

F|---------------------------|
C|---------------------------| x8
G|---------------------------|
D|-0-0-0-0-0--3/-0-5/-12-12\-|


F|---|
C|---|
G|---|
D|-0-|

Legend
------
| / = slide up
| \ = slide down
            
Hard to play? Try these video lessons and learn fast. | Correct




comments powered by Disqus
↑ Back to top | Tablatures and chords are parodies/interpretations of the original songs. You may use it for private study, scholarship, research or language learning purposes only