» » »

Regurgitation Of Corpses Bass tabs (ver.1)

Artists:  A B C D E F G H I J K L M N O P Q R S T U V W X Y Z # 

Regurgitation Of Corpses Bass tabs (ver.1)

Cattle Decapitation
Rating:
0/5 (0 votes)

Tabs too difficult? Try these video lessons and learn fast.
                Band:  Cattle Decapitation


.  - palm mute           /  - slide up to
  - slide down to       ~  - vibrato
h  - hammer on           b  - Bend
p  - pull off            Suffixes for bend
t  - tap                 f  - full bend    h - half bend
ph - pinched harmonic    q  - quarter bend t - tap bend
*  - see comment         ^  - Hold bend    r release bend
x  - Stuccatto           ~  - vibrato bend
,  - slight palm mute    () - ghost note, sustained note
"  - tremolo note        <> - Trill

Tunning Eb Ab Db Gb



Riff 1
|--------------------|
|--------7b-----7----|x4
|------6----------6b-|
|-5"--------5"-------|

Pause

Riff 1 x2

Riff  2
|-------------------------------|
|-------------------------------|x3
|----------------------------6b-|
|-5-555-5-555-5-555-5-5-5"------|
   

Riff 2a
|-----------------------|
|-----------------------|x1
|-----------------------|
|-5-555-5-555-5-555-5-5-|
   


Riff 3
|---------------------|x5         |-----|x1
|---------------------|           |-----|
|---------------------|           |-----|
|-5-555-5-555-5-555-5-|           |-/5\-|
    

Riff 4                     Riff 5
|---------------------|   |------------------------------------------|
|---------------------|x8 |-----8"---------------------8"------------|x4
|------6b-------6b----|   |---7"--7"-8"-10"-8"-7"----7"--7"-8"-7"-5"-|
|-5555-----5555----4b-|   |-5----------------------5-----------------|


Riff 6
|--------------------------------------|
|--------------------------------------|x1
|--------------------------------------|
|-3-22-2-33-3-22-2-33-3-22-2-33-3-22-2-|
    

Riff 5 x1
Riff 6 x1

Riff 7
|--------------------------|
|-----7-----8-----7-----6--|x1
|---6-----7-----6-----5----|
|-5-----6-----5-----4------|



Riff 8
|------------------------------------------------|
|------------------------------------------------|x1
|------------------------------------------------|
|-3p0"--2p0"--3p0"--2p0"--3p0"--2p0"--3p0"--2p0"-|

Riff 7 x1
Riff 8 x1
Riff 7 x1
Riff 8 x1
Riff 7 x4


Riff 9
|------------|
|------------|x1
|------------|
|-5--6--4--5-|

Riff 1 x4


Riff 10
|------------|
|------------|x2 regular picked then x2 tremelo picked
|------------|
|-5--4--6--5-|

END.
            
Tabs too difficult? Try these video lessons and learn fast.


comments powered by Disqus
↑ Back to top | Tablatures and chords are parodies/interpretations of the original songs. You may use it for private study, scholarship, research or language learning purposes only