>
 >
Chunk Blower

Chunk Blower Guitar Tabs

Cattle Decapitation - Chunk Blower chords, tabs, tablatures, lyrics

Guitar lessons | Add/correct | Request | Top 50 tabs Artists:  A B C D E F G H I J K L M N O P Q R S T U V W X Y Z 0-9

Chunk Blower Guitar Tabs – Cattle Decapitation

CD, Sheet music, Poster

Do you like Chunk Blower? Share with your friends now
Tabs
Cattle Decapitation
To Serve Man-Chunk Blower

Any Questions or comments please e-mail me but I'm pretty
Sure everything is correct, this song was kind of difficult
To comprehend but it is one of my favorite songs and I hope
You enjoy it, I know I did while I tabbed it, I am currently 
Working on humanure and Chummified so keep checking for updates.

Opening Riff
|---------------------------------------------------|
|---------------------------------------------------|
|---------------------------------------------------|
|---------------------------------------------------|
|-5--7-7-7-8-7-----7-7-7-8-7------7-7-7-8-7-----8~7~|
|---------------6--------------5-------------3------|

 Same Riff Just played Differently
 Slow Speed Picking for every first note
|---------------------------------------------------|
|---------------------------------------------------|
|---------------------------------------------------|
|---------------------------------------------------|
|-5"-7-7-7-8-7-----7-7-7-8-7------7-7-7-8-7-----8~7~|
|---------------6"-------------5"------------3"-----|

|---------------------------------------|
|---------------------------------------|
|---------------------------------------|
|---------------------------------------|
|-5"-7-8-7-----7-8-7------7-8-7-----8~7~|
|-----------6"--------5"---------3"-----|

Tremolo Picked At A Slow Speed
Example No. 1
|-------------------|
|-------------------|
|-------------------|
|-------------------|
|-55555555-7-7-7-8-7|
|-------------------|

Riff 2
|------|------|------|------|
|------|------|------|------|
|------|------|------|------|
|------|------|------|------|
|-5-5h8|-4-4h7|-3-3h6|-2-2h5|
|------|------|------|------|

Riff 3 During Vocals
|------------|--------------------|
|------------|--------------------|
|------------|--------------------|
|------------|--------------------|
|---9"10"7"--|---9"10"7"----------|
|-7--------8"|-7--------8"11"7"10"|

|-----------|-----------------|
|-----------|-----------------|
|-----------|-----------------|
|-----------|-----------------|
|---7"8"5"--|---7"8"5"--------|
|-5-------6"|-5-------6"9"5"8"|



Example Tremolo picked
|---------------------------|-------------------------------------------|
|---------------------------|-------------------------------------------|
|---------------------------|-------------------------------------------|
|---------------------------|-------------------------------------------|
|---9999101010107777--------|-7-9999101010107777------------------------|
|-7-----------------88888888|-------------------888811111111777710101010|

Riff 4
|------|------|------|------|-------|------|------|------|
|------|------|------|------|-------|------|------|------|
|------|------|------|------|-------|------|------|------|
|------|------|------|------|-7-7h10|-6-6h9|-5-5h8|-4-4h7|
|-5-5h8|-4-4h7|-3-3h6|-2-2h5|-------|------|------|------|
|------|------|------|------|-------|------|------|------|

Breakdown
|------|
|------|
|------|
|-8--5-|
|-8--5-|
|-6--3-|

 Riff 5
 Speed Pick Entire Sequence
|-----------------------------------------|
|-----------------------------------------|
|-----------------------------------------|
|-----------------------------------------|
|-5"--7"8"7"5"----7"8"7"----8"7"5"----8"7"|
|--------------6"--------5"--------3"-----|

Harmonize the 2nd time
|------------------------------------------|
|------------------------------------------|
|------------------------------------------|
|------------------------------------------|
|-5"--7"8"7"5"----7"8"7"----8"7"5"----8"7"-|
|--------------6"--------5"--------3"------|
|                                          |
|------------------------------------------|
|------------------------------------------|
|------------------------------------------|
|-7"--9"10"9"7"---9"10"9"---10"9"7"---10~9~|
|---------------8"--------7"--------5"-----|
|------------------------------------------|

Riff 5 Slower 
|----------------|-----------------|-----------|----------|---------|
|----------------|-----------------|-----------|----------|---------|
|----------------|-----------------|-----------|----------|---------|
|-9--------------|-----------------|-----------|----------|---------|
|-7--9-9-9-10-9-7|-10--9-9-9-10-9-7|--9--10-9-7|--7--10~9~|-5--10~9~|
|----------------|--8--------------|--7--------|--5-------|-3-------|
 
Riff 5 in a higher octave       Harmonize last 2 notes
|----------------------------------------------------|
|----------------------------------------------------|
|----------------------------------------------12"11"|
|----------------------------------------------\\-\\-|
|-7"--9"10"9"7"---9"10"9"---10"9"7"----10"9"----10"9"|
|---------------8"--------7"--------5"-------3"------|

Ending Riff
|--------------|--------------|--------------|---------------|
|--------------|--------------|--------------|---------------|
|--------------|--------------|--------------|---------------|
|--------------|--------------|--------------|---------------|
|-5-5-7h8p7h8p7|-6-6-7h8p7h8p7|-7-7-7h8p7h8p7|-8-8-7h8p7h8p7-|
|-3-3----------|-4-4----------|-5-5----------|-6-6-----------|

Same riff played Differently
|--------------|--------------|--------------|---------------|
|--------------|--------------|--------------|---------------|
|--------------|--------------|--------------|---------------|
|--------------|--------------|--------------|---------------|
|---------7-8p7|---------7-8p7|---------7-8p7|---------7-8p7-|
|-3-3-3-3------|-4-4-4-4------|-5-5-5-5------|-6-6-6-6-------|


"=Speed/Tremolo Picking
h=Hammer on
p=Pull off
That's about all I need to explain





Comments


Popular Cattle Decapitation tabs & chords
Diarrhea Of The Mouth Bass Tabs
Regurgitation Of Corpses Bass Tabs
The Decapitation Of Cattle Bass Tabs
I Eat Your Skin Tabs
Regurgitation Of Corpses Tabs
To Serve Man Tabs
To Serve Man 1 Tabs


Song lyrics



↑ Back to top | Tablatures and chords are parodies/interpretations of the original songs. You may use it for private study, scholarship, research or language learning purposes only
© 2014 AZChords.com Contact us | Privacy policy | DMCA | Add/correct tabs | Request tabs | Top 50 tabs