>
 >
Fill My Eyes 1

Fill My Eyes 1 Chords

Cat Stevens - Fill My Eyes 1 chords, tabs, tablatures, lyrics

Guitar lessons | Add/correct | Request | Top 50 tabs Artists:  A B C D E F G H I J K L M N O P Q R S T U V W X Y Z 0-9

Fill My Eyes 1 Chords – Cat Stevens

CD, Sheet music, Poster

Do you like Fill My Eyes 1? Share with your friends now
ChordsChords v2Ukulele
---------------------------------------------------------------------------
                Fill My Eyes - Cat Stevens 
---------------------------------------------------------------------------
Tuning: Standard

Cat Stevens
Fill My Eyes (1970)
(Cat Stevens)


---------------------------------------------------------------------------
CHORDS

          e-B-G-D-A-E
D/C       2-3-2-x-3-x
Esus4     0-0-2-2-x-x
Em        0-0-0-2-x-x
Emadd9    0-0-0-4-x-x
Bm/A      2-3-4-4-0-x
F#m/C#    2-2-2-3-3-x
D/F#      x-3-2-0-x-2

---------------------------------------------------------------------------
Play the D chords in the intros with a small barree (index finger) 
across the E-B-G strings.


INTRO
  D   G G6 D           G G6 D           G G6 D           G G6
e|52-23-0-|2---2--252-23-0-|2---2--252-23-0-|2---2--252-23-0-|
B|33-33-3-|3---3--333-33-3-|3---3--333-33-3-|3---3--333-33-3-|
G|22-20-0-|2---2--222-20-0-|2---2--222-20-0-|2---2--222-20-0-|
D|0---0---|0---0---0---0---|0---0---0---0---|0---0---0---0---|
A|--------|----------------|----------------|----------------|
E|--------|----------------|----------------|----------------|

LINK1 (verse  verse)
  D           G G6 D           G G6
e|2---2--252-23-0-|2---2--252-23-0-|
B|3---3--333-33-3-|3---3--333-33-3-|
G|2---2--222-20-0-|2---2--222-20-0-|
D|0---0---0---0---|0---0---0---0---|
A|----------------|----------------|
E|----------------|----------------|

LINK2 (verse  chorus)
e|2---2--252-23-0-|2---2---2-------|
B|3---3--333-33-3-|3---3---3-------|
G|2---2--222-20-0-|2---2---2-2-2-2-|
D|0---0---0---0---|0---0---0-0-4-0-|
A|----------------|----------------|
E|----------------|----------------|

  VERSE part
  Esus4            Em      Emadd9
e|0---------------|0-------0-------|
B|0---------------|0-------0-------|
G|2---------------|0------(0)------|
D|2---------------|2-------4-------|
A|----------------|----------------|
E|----------------|----------------|

---------------------------------------------------------------------------

INTRO
|2/4 D  G G6 |4/4 D  G G6 | D  G G6 | D  G G6 |


D                            D/C         Esus4 Em Emadd9
 And in the morning when you fill my eyes (VERSE part)
A           F#             Bm
I knew that day I couldn't do,
    Bm/A G      A                 D   G G6     D    G G6
Ah  ah   ah, no wrong, I couldn't do (LINK1 verse - verse)


D                         D/C   Esus4 Em Emadd9
 And so my mind begins to memorize (VERSE part)
A                 F#             Bm
 'Cause time will never seem the same,
    Bm/A G      A            D   G G6     D    
Ah  ah   ah, no more, never again (LINK2 verse - chorus)


G           A              D      F#m/C# Bm   A
 I'm just a coaster but my wheels won't  go,
G            A                 F#   B
 My legs are weak my heels are low
G           A              D      F#m/C# Bm   A
 I'm just a coaster but my wheels won't  roll
G                              D G G6     D    G G6   D    G G6
 Can't make no headway on this road  (INTRO)


D                         D/C         Esus4 Em Emadd9
 There's an empty space inside me now,  (VERSE part)
A            F#               Bm
 A wasteland deep beneath the snow,
    Bm/A  G    A             D   G G6     D    
So cold,          nothing'll grow


G           A              D      F#m/C# Bm   A
 I'm just a coaster but my wheels won't  go,
G            A                 F#   B
 My legs are weak my heels are low
G           A              D      F#m/C# Bm   A
 I'm just a coaster but my wheels won't  roll
G                             E          
Can't make no headway on this road 
     A            D               G       D/F#    Em 
What road?    oh, oh, oh, oh, oh, oh, oh, oh, oh, oh

| Em A7 | D  G G6 | D  G G6 | D  G G6 | D  G G6 |
          (INTRO verse  verse) twice


D                            D/C        Esus4 Em Emadd9
 And in the morning when you fill my eyes  (VERSE part)
A           F#             Bm
I knew that day I couldn't do,
    Bm/A G      A                 D   G G6     D    G G6   D
Ah  ah   ah, no wrong, I couldn't do (LINK1 verse - verse)





Comments


Popular Cat Stevens tabs & chords
Father And Son 2 Bass Tabs
Changes I V Chords
Father And Son 5 Chords
Granny Chords
I See A Road Chords
I've Found A Love Chords
Morning Has Broken 1 Chords
Silent Sunlight 1 Chords
100 I Dream Ukulele
I Wish I Wish Ukulele


Song lyrics



↑ Back to top | Tablatures and chords are parodies/interpretations of the original songs. You may use it for private study, scholarship, research or language learning purposes only
© 2014 AZChords.com Contact us | Privacy policy | DMCA | Add/correct tabs | Request tabs | Top 50 tabs