» » »

Father & Son Tabs (ver.5)

Artists:  A B C D E F G H I J K L M N O P Q R S T U V W X Y Z # 

Father & Son Tabs (ver.5)

Cat Stevens
Rating:
4/5 (1 vote)

Tabs too difficult? Try these video lessons and learn fast.
                

I hope this helps all the people who were looking for
the solo to this great tune.

-------|----12--------|--------------12----------|---------------------|------|
-12-13-|-15----15--12-|-15-15--15-15-------------|-12-------12---13-12-|------|
-------|--------------|----------------12--12h14-|----12h14------------|------|
-------|--------------|--------------------------|---------------------|------|
-------|--------------|--------------------------|---------------------|------|
-------|--------------|--------------------------|---------------------|------|


--------------------------------------|--------------------|-------0---------|
---------------------------------0--1-|-3---0--1--3---0--1-|-3-3-3-----------|
-14--12----12---11h12p11--------------|--------------------|---------0--0-2--|
--------14----------------14-12-------|--------------------|-----------------|
--------------------------------------|--------------------|-----------------|
--------------------------------------|--------------------|-----------------|


-----------------|--------------------|--------------------3---3--3--3-|------|
-------------1---|------------------0-|-3--3-\-1--1-p-0----3---3--3--3-|------|
--4---0-2-4----4-|-4--2--0-----0------|--------------------0---0--0--0-|------|
-----------------|-----------0--------|--------------------0---0--0--0-|------|
-----------------|--------------------|--------------------2---2--2--2-|------|
-----------------|--------------------|--------------------3---3--3--3-|------|


-----------3---5----3--3--3--3-|-----------3---5------------------------------|
-1------------------3--3--3--3-|-1--------------------------------------------|
-0---4-/-5---5------0--0--0--0-|-0---4-/-5---5--------------------------------|
-2------------------0--0--0--0-|-2--------------------------------------------|
-3------------------2--2--2--2-|-3--------------------------------------------|
--------------------3--3--3--3-|----------------------------------------------|
            
Tabs too difficult? Try these video lessons and learn fast.


comments powered by Disqus
↑ Back to top | Tablatures and chords are parodies/interpretations of the original songs. You may use it for private study, scholarship, research or language learning purposes only