» » »

Father & Son Tabs (ver.4)

Artists:  A B C D E F G H I J K L M N O P Q R S T U V W X Y Z # 

Father & Son Tabs (ver.4)

Cat Stevens
Rating:
4/5 (3 votes)

Hard to play? Try these video lessons and learn fast.
                Father and son by Cat Stevens

parate naman po..tnx..enjoy lang..
Guitar

                                                       Couplet 1     
      G        C                     G        C                      
      E  S S S E.  S E  S E  E       E  S S S E.  Q    E         E   
E||---3------3-------3----5------||--3------3-----------------------|
B||---0----0---1-----------------||--0----0---1---L----0---------1--|
G||*-----0---------4----5-------*||-----0---------------------------|
D||*-----------2-------------0--*||-----------2---L-----------------|
A||------------------------------||---------------------------------|
E||---3----3-3-------------------||--3------------------------------|


                                         Am            
  G5           D             Cadd9                     
  E.  S S S E  Q    E  E     Q     S S S E.  E  E  E   
--------------------------|--------------0------------|
--3---0-1-0-3--3----0--1--|--3-----3-3-3--------------|
---------------2----------|------------------0--0--2--|
--------------------------|----------2----------------|
--------------------------|--3---------3-0---3--0--3--|
--3---3--------2----2-----|--------0------------------|


  G           Em             Am                  Couplet 2     
                                         D                     
  E  E  E  E  E  E  E  E     E  S S S E  S E  E  E         E   
--------------------------|--------------2--------------------|
--0-----------0-----1--0--|--0----1-----------3--0---------1--|
--------0--2--------------|-----2-----0--2--------------------|
-----0--------------------|----------------0------------------|
--------2--3-----2-----2--|--0------0-------------------------|
--3-----------0-----0-----|-----------------------------------|


                                        Am              G           Em          
  G5          D             Cadd9                                               
  Q    S E  S Q    E  E     Q     S S S E.  E  E  E     Q    E  S S Q    S E.   
-------------------------|--------------0------------|-------------------------|
--3----0-1--3-3----0--1--|--3-----3-3-3--------------|--0-----------0----1-0---|
--------------2----------|------------------0--0--2--|----------0-2------------|
-------------------------|----------2----------------|-------------------------|
-------------------------|--3---------3-0---3--0--3--|----------2--------------|
--3----3------2----2-----|--------0------------------|--3-----------0----0-----|


  Am                     Couplet 3 et 4                                      
                                                G5           D               
  S  E  S S S E  S S S S E              E       E  S S S S S S Q    S S S S  
--------3-0-3-2--3-2-0---------------------||-------------------------------|
-----------------------3-0--------------1--||---3----1-0-1---3--------3---3-|
--0--2-------------------------------------||*---------------2--------2---2-|
-------------------------------------------||*-----0-------0---0----L---0---|
--0----------------------------------------||-------------------------------|
-------------------------------------------||---3------3-----2--------2---2-|


                 Am               G           Em           
  Csus2                                                    
  E     E  E  E  E  E  S S S S    E  E  E  E  E  E  E  E   
-----------------0-------------|--------------------------|
--3-----3--3--3--------------0-|--0-----------0-----1--0--|
--------0-----0-----0--0-2-----|--------0--2--------------|
--------0-----0----------------|-----0--------------------|
--3--------3-----0--3--0---3---|--------2--3-----2-----2--|
-------------------------------|--3-----------0-----0-----|


  Am                                G            Em                    
                 D                                             D       
  S  S S S S S S S E  E  E  E       E  S S E  E  S  S E  E  E  S S E   
-----------------2--------------||-------------------------------2----|
--0----1-------1------3--0--1---||--0------------0--0----1--0---------|
-----2---2---0---2-------------*||-------2-0--2----------------2-2----|
-------------------0-----------*||-----0---------------------------0--|
--0--------0--------------------||---------2--3-------2-----2---------|
--------------------------------||--3------------0-------0-----2------|


                                                 Solo     
  G        C                   G        C                 
  E  S S S E.  S E  S E  E     E  S S S E.  Q    E    E   
---------3-------3----5-----|--3------3------------------|
-------0---1----------------|-------0---1---L----0----1--|
--0--0---------4----5-------|-----0----------------------|
-----------2-------------0--|-----------2---L------------|
----------------------------|----------------------------|
--3-------------------------|--3-------------------------|


                                            Am            
  G5        D                 Csus2                       
  E  S S E  Q    E  E  S S    E     E  E  S E  E.  E  E   
---------0-----------------|----------------0------------|
--3----3----3-------0----1-|--3-----3--3--3--------------|
-----0------2----------0---|--------0-----0----0---0--2--|
-----------------0---------|--------0-----0--------------|
---------------------------|--3--------3----0--3---0--3--|
--3---------2-------2------|-----------------------------|


  G           Em             Am            D             
  E  E  E  E  E  E  E  E     E  S S S E  S S S E.  S E   
--------------------------|-----3-0-3-2--3-2-0----------|
--0-----------0-----1--0--|--------------------3---0-1--|
--------0--2--------------|--2--------------------------|
-----0--------------------|-----------------------------|
--------2--3-----2-----2--|--0--------------------------|
--3-----------0-----0-----|-----------------------------|


  G                                       Am           
                D             Csus2                    
  E  S S S E  S Q.     S S    Q     E  E  E  E  E  E   
---------------------------|--------------0-----------|
--3------0-1--3-3------0-1-|--3-----3--3--------------|
-------0--------2----------|--------0--------0--0--2--|
-----0---------------------|--------0-----------------|
---------------------------|--3--------3--0--3--0--3--|
--3-------------2----------|--------------------------|


  G           Em            D     G                   D      C                 
                                                                     G         
  Q    E  S S Q    S E.     E.  S E.  S Q    E  E     Q    S E  E  S Q    E    
-------------------------|-------------------------|-----------------3----L--||
--0----L------0----1-0---|--0-------------------0--|--3----3-1--1--0-0-------||
----------0-2------------|------2-0-----0----------|-----------------0-------||
-------------------------|------------0------------|--0----------------------||
----------2--------------|--2----------------------|-------------------------||
--3-----------0----0-----|-------------------------|-----------------3----L--||

parate naman po,,tnx..


Lyrics..

Father and Son by Cat Stevens

it's not time to make a change
just relax, take it easy
you're still young, that's your fault
there's so much you have to know
find a girl, settle down
if you want you can marry
look at me, i am old but i'm happy

i was once like you are now
and i know that it's not easy
to be calm when you've found something going on
but take your time, think a lot
think of everything you've got
for you will still be here tomorrow
but your dreams may not

how can i try to explain
when i do he turns away again
and it's always been the same, same old story
i was ordered to listen
now there's a way and i know
that i have to go away
i know i have to go

it's not time to make a change
just sit down and take it slowly
you're still young that's your fault
there's so much you have to go through
find a girl, settle down
if you want you can marry
look at me, i am old but i'm happy

all the times that i've cried
keeping all the things i know inside
and it's hard, but it's harder to ignore it
if they were right i'd agree
but it's them they know not me
now there's a way and i know
that i have to go away
i know i have to go


Duration Legend
---------------
W - whole
H - half
Q - quarter
E - 8th
S - 16th
T - 32nd
X - 64th
. - note dotted
|-n-|  - n-tuplets


Tablature Legend
----------------
L - tied note
x - dead note
g - grace note
(n) - ghost note
> - accentuded note
NH - natural harmonic
AH - artificial harmonic
TH - tapped harmonic
SH - semi harmonic
PH - pitch harmonic
h - hammer on
p - pull off
b - bend
br - bendRelease
pb - preBend
pbr - preBendRelease
brb - bendReleaseBend
\n/ - tremolo bar dip
\n - tremolo bar dive
-/n - tremolo bar Release up
/n\ - tremolo bar inverted dip
/n - tremolo bar return
-\n - tremolo bar Release down
S - shift slide
s - legato slide
/ -  slide into from below or out of upwards
\ -  slide into from above or out of downwards
~ - vibrato
W - wide vibrato
tr - trill
TP - tremolo picking
T - tapping
S - slap
P - pop
< - fade in
^ - brush up
v - brush down
            
Hard to play? Try these video lessons and learn fast. | Correct




comments powered by Disqus
↑ Back to top | Tablatures and chords are parodies/interpretations of the original songs. You may use it for private study, scholarship, research or language learning purposes only