» » »

Casualties, Unknown Soldiers Tabs (ver.6)

Artists:  A B C D E F G H I J K L M N O P Q R S T U V W X Y Z # 

Unknown Soldiers Tabs (ver.6)

Casualties Tabs
 Rating:
4/5 (4 votes)
Unknown Soldiers lessons Tabs too difficult? Try these video lessons and learn fast
                whole song with distortion

intro
e|-------------------------------------------|
B|1--3-4--3------1-(1)---1--3-4--3------1--1-|
G|----------3--0-------0-----------3--0------|
D|-------------------------------------------|
A|-------------------------------------------|
E|-------------------------------------------|


                        |THIS PART IS WRONG BUT GOOD ENOUGH FOR ME
                            ||
                            \/
e|----------------------|---------|----------------------------------|
B|--1--1-3-4-3--3-/6-4-3|---1---1-|--1-1-3-4-3-3-/6-8-6-3-4-3-4-3-4--|
G|0-----------3---------|-0---3---|-0---------3----------------------|
D|----------------------|---------|----------------------------------|
A|----------------------|---------|----------------------------------|
E|----------------------|---------|----------------------------------|


e|------------------------------------|
B|------------------------------------|
G|5-5555-7-8-8888-7--------7-5-555555-|play this thru the whole song
D|5-5555-7-8-8888-7-8-8888-7-5-555555-|sometimes it's palm muted just listen
A|3-3333-5-6-6666-5-8-8888-5-3-333333-|to the song and find out yourself
E|------------------6-6666------------|

LICK 1
e|--------------------------------------------------|
B|--------------------------------------------------|
G|--------------------------------------------------|
D|--------------------------------------------------|
A|3-3-5-6-/9-6-5-5-6-5-3-1-3-3-5-6-/9-6-5-5-6-5-3-1-|
E|--------------------------------------------------|

lick 2
e|-----------------------------------------------------------------------|
B|1-111-3-4-3-4-3-1-------3-4-3-4-3-1-1-111-3-4-3-4-3-1-8-6-8-6-8-6-4-3-1|
G|------------------3-333------------------------------------------------|
D|-----------------------------------------------------------------------|
A|-----------------------------------------------------------------------|
E|-----------------------------------------------------------------------|

END
e|---------------|
B|1--------------|
G|---------------|
D|---------------|
A|---/6-1-3-3333-|
E|---------------|
            
Submit corrections

comments powered by Disqus
↑ Back to top | Casualties Tabs for Unknown Soldiers. Lyrics for acoustic guitar and electric guitar. Tablatures and chords are parodies/interpretations of the original songs. You may use it for private study, scholarship, research or language learning purposes only