» » »

Tomorrow Belongs To Us Tabs (ver.1)

Artists:  A B C D E F G H I J K L M N O P Q R S T U V W X Y Z # 

Tomorrow Belongs To Us Tabs (ver.1)

Casualties
Rating:
0/5 (0 votes)

Hard to play? Try these video lessons and learn fast.
                Intro:  -------------
        -------------
        -7-7-7-------
        -7-7-7-7-7-7-
        -5-5-5-7-7-7-      x1
        -------5-5-5-

Verse:  ------------------------------------
        ------------------------------------
        -11-------9-------11-------9---11---
        -11---7---9---4---11---7---9---11---     x3
        --9---7---7---4----9---7---7----9---
        ------5-------2--------5------------

Chorus: -------------------------
        -------------------------
        -7-----------7-------9---
        -7---7---2---7---7---9---     x2
        -5---7---2---5---7---7---
        -----5---0-------5-------

Verse: x2
Chorus: x2

Play a quick: ----  
              ---- 
              -11- 
              -11-
              --9-
              ----  right before the bass solo.

Bass Solo.

Then Play the verse chords but dont strum, just play each note once.

Then play the Verse with palm muting:

(* means palm mute x6)
    --------------------------------------------------------------
    --------------------------------------------------------------
    -11--11*---------9--9*---------11--11*---------9--9*--11--11*-
    -11--11---7--7*--9--9---4--4*--11--11---7--7*--9--9---11--11--   x1
    --9---9---7--7---7--7---4--4----9---9---7--7---7--7----9---9--
    ----------5--5----------2--2------------5--5------------------

Chorus x2

verse x2

Then its: --------------
          --------------
          --11----------
          --11---9---4--
          ---9---9---4--
          -------7---2-- right before the bass drum/vocal solo.

Pick Slide...

Chorus x2

Outro: ------------------------------
       ------------------------------
       --555-------------555-----11--
       --555-555-777-444-555-555-11--
       --777-555-777-444-777-555--9--
       ------777-999-222-----777-----
            
Hard to play? Try these video lessons and learn fast. | Correct




comments powered by Disqus
↑ Back to top | Tablatures and chords are parodies/interpretations of the original songs. You may use it for private study, scholarship, research or language learning purposes only