» » »

Sellout Society Bass tabs (ver.1)

Artists:  A B C D E F G H I J K L M N O P Q R S T U V W X Y Z # 

Sellout Society Bass tabs (ver.1)

Casualties
Rating:
0/5 (0 votes)

Hard to play? Try these video lessons and learn fast.
                the Casualties-sellout society
Rick plays it with some distortion, you can if you want 

G-----------------------------------------
D-----------------------------------------
A-----------------------------------------
E-99999-7777-99999-7777-99999-7777-444444-


G---------------------------------      
D---------------------------------  4x
A-----7-9999999-----7-99999-------
E-999----------77777--------------

Chorus
G-----------------------|    ----------------------
D-6666------------------|3x  -6666-----------------
A-----77777-9999-77-----|    -----7777-999-77--7-9- do this on 4th time
E------------------9-99-|    ----------------9----9


G----------------------------------       
D-----------------------------9-11- 3x then back to chorus
A-----7-9999999-----7-9--9-11------
E-999----------77777---------------

G------------------------------    ------------------------------------------------------------
D-666666----------------------- 2x -666666-----------------------------------------------------
A---------------9999-----------    ----------------999999--------------------------------------
E--------9999999----7777-9999-7    --------9999999--------7777-99999-77-99999-77-99999-77-444--

G--------------------------------------     
D--------------------------------9-11--
A-----7-9999999-----7-99999--9-11------
E-999----------77777-------------------   Then back to chorus
            
Hard to play? Try these video lessons and learn fast. | Correct




comments powered by Disqus
↑ Back to top | Tablatures and chords are parodies/interpretations of the original songs. You may use it for private study, scholarship, research or language learning purposes only