» » »

Punk Rock Love Tabs (ver.2)

Artists:  A B C D E F G H I J K L M N O P Q R S T U V W X Y Z # 

Punk Rock Love Tabs (ver.2)

Casualties
Rating:
0/5 (0 votes)

Hard to play? Try these video lessons and learn fast.
                INTRO: (1st part) play 2X
e|-----------------------------------------------------------------|
B|-----------------------------------------------------------------|
G|---------------6---------7-------6-------------------------------|
D|-----7-------6--6-----7--7--7/9---7-9----------------------------|
A|---7--7---4------4--5-----5--------------------------------------|
E|--5-----5--------------------------------------------------------|

INTRO: (2nd part) play 2X
e|----------------------------------9------------------------------|
B|--9/10-10-9--9-10-12-9-10-12--12-10------------------------------|
G|-------------9---------------------------------------------------|
D|-----------------------------------------------------------------|
A|-----------------------------------------------------------------|
E|-----------------------------------------------------------------|

INTRO: (3rd part) play 2X
e|-----------------------------------------------------------------|
B|--10-9-10-9-10-9-10-9-10-9-12-10-9-------------------------------|
G|-----------------------------------------------------------------|
D|-----------------------------------------------------------------|
A|-----------------------------------------------------------------|
E|-----------------------------------------------------------------|

1st VERSE: play 2X
e|-----------------------------------------------------------------|
B|-----------------------------------------------------------------|
G|-------------9-9-9-9--11-11-11-11---7-7-7-7----------------------|
D|--7-7-7-7--9-9-9-9---11-11-11-11--7-7-7-7------------------------|
A|--7-7-7-7--7-7-7-7----9--9---9--9--5-5-5-5-----------------------|
E|--5-5-5-5--------------------------------------------------------|

CHORUS: play 2X
e|-----------------------------------------------------------------|
B|-----------------------------------------------------------------|
G|-------------9-9-9-9--11-11-11-11---7-7-7-7----------------------|
D|--7-7-7-7--9-9-9-9---11-11-11-11--7-7-7-7------------------------|
A|--7-7-7-7--7-7-7-7----9--9---9--9--5-5-5-5-----------------------|
E|--5-5-5-5--------------------------------------------------------|

2nd VERSE: play 2X
e|-----------------------------------------------------------------|
B|-----------------------------------------------------------------|
G|-------------9-9-9-9--6-6-6-6--7-7-7-7---------------------------|
D|--7-7-7-7--9-9-9-9--6-6-6-6--7-7-7-7-----------------------------|
A|--7-7-7-7--7-7-7-7--4-4-4-4--5-5-5-5-----------------------------|
E|--5-5-5-5--------------------------------------------------------|

Then play:
CHORUS
2nd VERSE
CHORUS
2nd part of INTRO
2nd VERSE
CHORUS
OUTRO:
B|--9-10--------------------------------------------------------------|
            
Hard to play? Try these video lessons and learn fast. | Correct




comments powered by Disqus
↑ Back to top | Tablatures and chords are parodies/interpretations of the original songs. You may use it for private study, scholarship, research or language learning purposes only