» » »

Casualties, No Solution - No Control Bass tabs (ver.1)

Artists:  A B C D E F G H I J K L M N O P Q R S T U V W X Y Z # 

No Solution - No Control Bass tabs (ver.1)

Casualties Tabs
 Rating:
4/5 (4 votes)
No Solution - No Control lessons Tabs too difficult? Try these video lessons and learn fast
1
                No solution, No control
The Casualties

Intro                         x2 |
G|-------------------------------|---------------|
D|-------------------------------|--------97-7---|
A|-------------------------------|----------9-9--|
E|-7777-7777-7777-7777-7777-7777-|-7----7------7-|

Verse
G|-----------------|
D|-----------------|
A|-----------9-7---|
E|-777777-10-----5-|

Chorus
G|---------------------------|
D|---------------------------|
A|--------5555555---777--777-|
E|-3333333---------7----7----|

Verse
Chorus

Bridge                                 | x2
G|-------------------------------------|--------------------------|
D|-------------------------------------|--------------------------|
A|-9999999-10101010101010-7777777-5555-|--------------------------|
E|-------------------------------------|-3333-5555-7-5-77--7-5-77-| 

G|-----------|----------------|
D|-----------|----------------|
A|-----------|----------------|
E|-3333-5555-|-7777-7777-7777-|

Verse
Chorus

End
G|----------------------------------|
D|----------------------------------|
A|-9999999-10101010101010-10-9-7----|
E|-------------------------------7--|

I'll add you fer shure and we can bum over the interweb lolz
            
Submit corrections

comments powered by Disqus
↑ Back to top | Casualties Bass for No Solution - No Control. Lyrics for acoustic guitar and electric guitar. 1 Tablatures and chords are parodies/interpretations of the original songs. You may use it for private study, scholarship, research or language learning purposes only