» » »

Casualties, No Rules Bass tabs (ver.2)

Artists:  A B C D E F G H I J K L M N O P Q R S T U V W X Y Z # 

No Rules Bass tabs (ver.2)

Casualties Tabs
 Rating:
4/5 (4 votes)
No Rules lessons Tabs too difficult? Try these video lessons and learn fast
                verse x4
G---------------------------------------------------------------------------
D---------------------------------------------------------------------------
A------3333------2-3--------------------------------------------------------
E-5555------3333------------------------------------------------------------

  pre-chorus x2
G---------------------------------------------------------------------------
D---------------------------------------------------------------------------
A-----3---3---555-3---------------------------------------------------------
E---5---5-----------5-------------------------------------------------------

  chorus x4
G---------------------------------------------------------------------------
D---------------------------------------------------------------------------
A--7777---------------------------------------------------------------------
E-------5555-7777-7-8-7-----------------------------------------------------

G---------------------------------------------------------------------------
D---------------------------------------------------------------------------
A-7777-----------8-8-8------------------------------------------------------
E------5555-7777------------------------------------------------------------
i have no idea what the bridge is...rate the god *** tabs!!!! j/k
-Tire_
            
Submit corrections

comments powered by Disqus
↑ Back to top | Casualties Bass for No Rules. Lyrics for acoustic guitar and electric guitar. Tablatures and chords are parodies/interpretations of the original songs. You may use it for private study, scholarship, research or language learning purposes only