» » »

Casualties, No Rules Tabs (ver.1)

Artists:  A B C D E F G H I J K L M N O P Q R S T U V W X Y Z # 

No Rules Tabs (ver.1)

Casualties Tabs
Rating:
0/5 (0 votes)
No Rules lessons Tabs too difficult? Try these video lessons and learn fast
                

Song title: No Rules

Standard Tuning: E-A-D-G-B-e


  I was trying to find tabs for this song and was pretty bored,
  but with no luck and finding only bass tabs I just decided to
  tab it myself

Intro: 0:00 - 0:16

e|--12-Let Ring-------|
B|--------------------| Feedback used
G|--------------------|
D|--------------------|
A|--------------------|
E|--------------------|

Then:  0:17 - 0:26
e|-------------------------|
B|-------------------------|
G|-------5555-------4-5----| 4x
D|--7777-5555-5555--4-5----|
A|--7777-3333-5555--2-3----|
E|--5555------3333---------|

Then:  0:27 - 0:31
e|-------------------|
B|-------------------|
G|----5---5-77-5-----| 2x
D|--7-5-7-5-77-5-7---|
A|--7-3-7-3-55-3-7---|
E|--5---5--------5---|

And:   0:32 - 0:42                          on second end, play this instead
e|----------------------------------------------|   |------------| <-
B|-----------------------------------------666--|   |--6-6-6-66--|
G|--9999------4444--5-4-2---9999------4444-555--|2x |--5-5-5-55--|
D|--9999-7777-4444--5-4-2---9999-7777-4444-333--|   |--3-3-3-33--|
A|--7777-7777-2222--3-2-0---7777-7777-2222------|   |------------|
E|-------5555--------------------5555-----------|   |------------|

Again: 0:43 - 0:52
e|-------------------------|
B|-------------------------|
G|-------5555-------4-5----| 4x
D|--7777-5555-5555--4-5----|
A|--7777-3333-5555--2-3----|
E|--5555------3333---------|

Yeah:  0:53 - 0:57
e|-------------------|
B|-------------------|
G|----5---5-77-5-----| 2x
D|--7-5-7-5-77-5-7---|
A|--7-3-7-3-55-3-7---|
E|--5---5--------5---|

...:   0:58 - 1:08
e|----------------------------------------------|   |------------| <-2ndtime
B|-----------------------------------------666--|   |--6-6-6-66--|
G|--9999------4444--5-4-2---9999------4444-555--|2x |--5-5-5-55--|
D|--9999-7777-4444--5-4-2---9999-7777-4444-333--|   |--3-3-3-33--|
A|--7777-7777-2222--3-2-0---7777-7777-2222------|   |------------|
E|-------5555--------------------5555-----------|   |------------|

mmm:   1:09 - 1:18
e|-------------------------|
B|-------------------------|
G|-------5555-------4-5----| 4x
D|--7777-5555-5555--4-5----|
A|--7777-3333-5555--2-3----|
E|--5555------3333---------|

Again: 1:19 - 1:24
e|-------------------|
B|-------------------|
G|----5---5-77-5-----| 2x
D|--7-5-7-5-77-5-7---|
A|--7-3-7-3-55-3-7---|
E|--5---5--------5---|

And:   1:25 - 1:34
e|----------------------------------------------|   |------------| <-2ndtime
B|-----------------------------------------666--|   |--6-6-6-66--|
G|--9999------4444--5-4-2---9999------4444-555--|2x |--5-5-5-55--|
D|--9999-7777-4444--5-4-2---9999-7777-4444-333--|   |--3-3-3-33--|
A|--7777-7777-2222--3-2-0---7777-7777-2222------|   |------------|
E|-------5555--------------------5555-----------|   |------------|

During Bass:
       1:35 - 1:44
e|-------------------|     Pickslide near end of the second time.
B|-------------------|
G|-------------------| 2x
D|--7-----------7----|
A|--7-let ring--7----|
E|--5-----------5----|

Mmm:   1:45 - 1:54
e|-------------------------|
B|-------------------------|
G|-------5555-------4-5----| 4x
D|--7777-5555-5555--4-5----|
A|--7777-3333-5555--2-3----|
E|--5555------3333---------|

Close: 1:55 - 1:59
e|-------------------|
B|-------------------|
G|----5---5-77-5-----| 2x
D|--7-5-7-5-77-5-7---|
A|--7-3-7-3-55-3-7---|
E|--5----5--------5--|

Last:  2:00 - 2:10
e|----------------------------------------------|   |------------| <-2ndtime
B|-----------------------------------------666--|   |--6-6-6-66--|
G|--9999------4444--5-4-2---9999------4444-555--|2x |--5-5-5-55--|
D|--9999-7777-4444--5-4-2---9999-7777-4444-333--|   |--3-3-3-33--|
A|--7777-7777-2222--3-2-0---7777-7777-2222------|   |------------|
E|-------5555--------------------5555-----------|   |------------|

End on
e|-----| let ring
B|-----|
G|-----|
D|--7--|
A|--7--|
E|--5--|
            

comments powered by Disqus
↑ Back to top | Casualties Tabs for No Rules. Lyrics for acoustic guitar and electric guitar. Tablatures and chords are parodies/interpretations of the original songs. You may use it for private study, scholarship, research or language learning purposes only