» » »

Casualties, Fight For Your Life Tabs (ver.3)

Artists:  A B C D E F G H I J K L M N O P Q R S T U V W X Y Z # 

Fight For Your Life Tabs (ver.3)

Casualties Tabs
Rating:
0/5 (0 votes)
Fight For Your Life lessons Tabs too difficult? Try these video lessons and learn fast
                THE CASUALTIES
FIGHT FOR YOUR LIFE
ALBUM?
PM=PALM MUTED
E--------------------
B--------------------
G------6-------------
D-6----6-8X----------<<<<<<<INTRO AND CHORES    
A-6-8X-4-------------   
E-4------------------
                                  
E---------------------------------
B---------------------------------
G-4/6------12-11-11-9-6-----------<<<<<<<<<VERSE
D-4/6-6X---12-11-11-9-6----------- 
A-2/4------10--9--9-7-4-----------
E---------------------------------

E-----------------------------------------------------------
B-----------------------------------------------------------
G-3/4-4-4--11-11--3/4-4-4--11-11--3/4-4-4--11-9-7-6---6-----
D-3/4-4-4--11-11--3/4-4-4--11-11--3/4-4-4--11-9-7-6---6-8X--<<GUITAR SOLO
A-1/2-2-2---9--9--1/2-2-2---9--9--1/2-2-2---9-7-5-4---4-----
E-----------------------------------------------------------
ORDER PLAYED                                          PM
INTRO:4X 
VERSE:4X
CHORUS:2X
VERSE:4X
CHORUS:2X
GUITAR SOLO:2X
VERSE:4X
BASS SOLO:
CHORUS:2X
VERSE:4X
CHORUS:4X
            

comments powered by Disqus
↑ Back to top | Casualties Tabs for Fight For Your Life. Lyrics for acoustic guitar and electric guitar. Tablatures and chords are parodies/interpretations of the original songs. You may use it for private study, scholarship, research or language learning purposes only