» » »

Fight For Your Life Tabs (ver.2)

Artists:  A B C D E F G H I J K L M N O P Q R S T U V W X Y Z # 

Fight For Your Life Tabs (ver.2)

Casualties
Rating:
0/5 (0 votes)

Hard to play? Try these video lessons and learn fast.
                X = Play muted
Intro A

E|-----------------------------------|
B|-----------------------------------|
G|-----------------6-6-6-6-6-6-6-6---|
D|-6-6-6-6-6-6-6-6-6-6-6-6-6-6-6-6---|
A|-6-6-6-6-6-6-6-6-4-4-4-4-4-4-4-4---|
E|-4-4-4-4-4-4-4-4-------------------|

Intro B

E|-----------------------------------|
B|-----------------------------------|
G|-----------------------------------|
D|-6-6-6-6-6-6-6-6--6-6--6-6-6--6-6--|
A|-6-6-6-6-6-6-6-6--6-6--6-6-6--6-6--|
E|-4-4-4-4-4-4-4-4--4-4--4-4-4--4-4--|

Verse

E|-----------------------------------------------|
B|-----------------------------------------------|
G|-6-6-6-6-6-6-6-6-6-13-11-11-11-11-9-6-6-6-6-4--|
D|-6-6-6-6-6-6-6-6-6-13-11-11-11-11-9-6-6-6-6-4--|
A|-4-4-4-4-4-4-4-4-4-11-9--9--9--9--7-4-4-4-4-2--|
E|-----------------------------------------------|

Bridge

E|-------------------------------------------------------------------------------------------|
B|-------------------------------------------------------------------------------------------|
G|-4-4-4-4-4-11-11-11-11-11-4-4-4-4-4-11-11-11-11-11-4-4-4-4-4-11-7-6-X-X-X-X-X-X-X-X-X-X-X-X|
D|-4-4-4-4-4-11-11-11-11-11-4-4-4-4-4-11-11-11-11-11-4-4-4-4-4-11-7-6-X-X-X-X-X-X-X-X-X-X-X-X|
A|-2-2-2-2-2-9--9--9--9--9--2-2-2-2-2-9--9--9--9--9--2-2-2-2-2-9--9-4-X-X-X-X-X-X-X-X-X-X-X-X|
E|-------------------------------------------------------------------------------------------|

Order
Intro A 3x
Intro B 1x
Verse   4x
Intro A 2x
Verse   4x
Intro A 2x
Bridge  2x
Verse   4x
Pause
Pick Scr*pe
Intro A 2x
Verse   4x
Intro A 4x
            
Hard to play? Try these video lessons and learn fast. | Correct




comments powered by Disqus
↑ Back to top | Tablatures and chords are parodies/interpretations of the original songs. You may use it for private study, scholarship, research or language learning purposes only