» » »

Destruction And Hate Tabs (ver.1)

Artists:  A B C D E F G H I J K L M N O P Q R S T U V W X Y Z # 

Destruction And Hate Tabs (ver.1)

Casualties
Rating:
4/5 (2 votes)

Hard to play? Try these video lessons and learn fast.
                INTRO

E------------------------------------------------------------|
B------------------------------------------------------------|
G------------------------------------------------------------|
D---9---7-7-8-7(f**k!)---9---7-7-7-6-4-2(-4-2-4-2-4-2-4-2)---|
A-7---7----------------7---7---------------------------------|
E------------------------------------------------------------|

E--------------------------------|
B--------------------------------|
G-9999-----------66----9999------|
D-9999-9999-7777-66-99-9999-9999-|
A-7777-9999-7777-44-99-7777-9999-|
E------7777-5555----77------7777-|

VERSE

E--------------------------------|
B--------------------------------|
G-9999-----------66----9999------|
D-9999-9999-7777-66-99-9999-9999-|    X4
A-7777-9999-7777-44-99-7777-9999-|
E------7777-5555----77------7777-|

BRIDGE NO.1

E----------------------------------------------------------------------|
B----------------------------------------------------------------------|
G-14141414-13131313-9999-141414-13-14141414-13131313-16161616-14141414-|
D-14141414-13131313-9999-141414-13-14141414-13131313-16161616-14141414-|
A-12121212-11111111-7777-121212-11-12121212-11111111-14141414-12121212-|
E----------------------------------------------------------------------|

E--------------------------------------------------------------|
B--------------------------------------------------------------|
G-14141414-13131313-9999-141414-13-14141414-13131313-16161616--|
D-14141414-13131313-9999-141414-13-14141414-13131313-16161616--|
A-12121212-11111111-7777-121212-11-12121212-11111111-14141414--|
E--------------------------------------------------------------|


BRIDGE NO.2


E---------------------------------------------|
B---------------------------------------------|
G-9~------------------------------------------|
D-9~-7777-6666-2222-777-6-7777-6666-9999-7777-|
A-7~-7777-6666-2222-777-6-7777-6666-9999-7777-|
E----5555-4444-0000-555-4-5555-4444-7777-5555-|

E----------------------------------------|
B----------------------------------------|
G-9~-------------------------------------|
D-9~-7777-6666-2222-777-6-7777-6666-9999-|
A-7~-7777-6666-2222-777-6-7777-6666-9999-|
E----5555-4444-0000-555-4-5555-4444-7777-|

OUTRO

E-------------------|
B-------------------|
G-9~------6---9---9-|
D-9~-9~-7~6-9-9-9-9-|
A-7~-9~-7~4-9-7-9-7-|
E----7~-5~--7---7---|

one of their best songs and easy too!
            
Hard to play? Try these video lessons and learn fast. | Correct




comments powered by Disqus
↑ Back to top | Tablatures and chords are parodies/interpretations of the original songs. You may use it for private study, scholarship, research or language learning purposes only