» » »

Casting Crowns, Lifesong Tabs (ver.1)

Artists:  A B C D E F G H I J K L M N O P Q R S T U V W X Y Z # 

Lifesong Tabs (ver.1)

Casting Crowns Tabs
 Rating:
4/5 (4 votes)
Lifesong lessons Tabs too difficult? Try these video lessons and learn fast
1
                
Tuning: Standard

Guitar 1 - lead
Guitar 2 - rhythm

  INTRO

  Gtr 1

|---------------------------------------------------------|
|---------------------------------------------------------|
|---------------------------------------------------------|
|---------------------------------------------------------|
|---------------------------------------------------------|
|---------------------------------------------------------|
|
| Gtr 2            PM.....................................
|----------|-------------------|--------------------------|
|----------|-------------------|--------------------------|
|----------|-------------------|--------------------------|
|----------|-------6-6-6-6-6-6-|--6-6-6-6-6-6-6-6-6-6-6-6-|
|----------|-------4-4-4-4-4-4-|--4-4-4-4-4-4-4-4-4-4-4-4-|
|----------|-------------------|--------------------------|



 (with delay ~500 ms)
|----------------9--------------|----------------------------|
|----------------------9--------|----------------------------|
|-10h11h13-10h11-------------10-|-(10)-----------------------|
|-------------------------------|----------------------------|
|-------------------------------|----------------------------|
|-------------------------------|----------------------------|
|					
| PM.........................................................
|-------------------------------|----------------------------|
|-------------------------------|----------------------------|
|-------------------------------|----------------------------|
|--6--6--6--6--6-6-6-6-6-6-6--6-|---6--6-6-6-6-6-6-6-6-6-6-6-|
|--4--4--4--4--4-4-4-4-4-4-4--4-|---4--4-4-4-4-4-4-4-4-4-4-4-|
|-------------------------------|----------------------------|


  
   
|----------------9-----------9-|-(9)--------------------------|
|----------------------9-------|------------------------------|
|-10h11h13-10h11---------------|------------------------------|
|------------------------------|------------------------------|
|------------------------------|------------------------------|
|------------------------------|------------------------------|
|
|PM....................................................... 
|------------------------------|------------------------------|
|------------------------------|------------------------------|
|------------------------------|------------------------------|
|------------------------------|------------------------------|
|--8--8--8--8--8-8-8-8-8-8-8-8-|--8--8-8-8-8-8-8-8-8-8-8-8----|
|--6--6--6--6--6-6-6-6-6-6-6-6-|--6--6-6-6-6-6-6-6-6-6-6-6----|


  

|----------------9--------------|----------------------------|
|----------------------9--------|----------------------------|
|-10h11h13-10h11-------------10-|-(10)-----------------------|
|-------------------------------|----------------------------|
|-------------------------------|----------------------------|
|-------------------------------|----------------------------|
|
|  PM........................................................
|-------------------------------|----------------------------|
|-------------------------------|----------------------------|
|-------------------------------|----------------------------|
|-------------------------------|----------------------------|
|--6--6--6--6--6-6-6-6-6-6-6--6-|---6--6-6-6-6-6-6-6-6-6-6-6-|
|--4--4--4--4--4-4-4-4-4-4-4--4-|---4--4-4-4-4-4-4-4-4-4-4-4-|


 			  
   
|----------------9-----------9-|-(9)-----------------------|
|----------------------9-------|---------------------------|
|-10h11h13-10h11---------------|---------------------------|
|------------------------------|---------------------------|
|------------------------------|---------------------------|
|------------------------------|---------------------------|
|
|PM........................................................  
|------------------------------|---------------------------|
|------------------------------|---------------------------|
|------------------------------|---------------------------|
|------------------------------|---------------------------|
|--4--4--4--4--4-4-4-4-4-4-4-4-|--4--4-4-4-4-4-4-4-4-4-4-4-|
|--2--2--2--2--2-2-2-2-2-2-2-2-|--2--2-2-2-2-2-2-2-2-2-2-2-|

                                     
Just the intro now but more on the way:)
 
            
Submit corrections

comments powered by Disqus
↑ Back to top | Casting Crowns Tabs for Lifesong. Lyrics for acoustic guitar and electric guitar. 1 Tablatures and chords are parodies/interpretations of the original songs. You may use it for private study, scholarship, research or language learning purposes only