» » »

Lifesong Bass tabs (ver.1)

Artists:  A B C D E F G H I J K L M N O P Q R S T U V W X Y Z # 

Lifesong Bass tabs (ver.1)

Casting Crowns
Rating:
0/5 (0 votes)

Hard to play? Try these video lessons and learn fast.
                Intro
G-------------------------------------|
D-------------------------------------|
A--------4----------------------------|
E-----------------6--------4--------2-|

Verse
G------------------------------------|
D------------------------------------|
A44444444--------22222222-6----------|
E--------66666666-----------44444444-|

Bridge 1
G---------------------------------|
D---------------------------------|
A44444444--------6----------------|
E--------66666666-444444422222222-|


Chorus
G-----------------------------------------|
D-----------------------------------------|
A44444444---------------------------------|
E--------44444444666666662222222222222222-|

G-------------------------------------------------|
D-------------------------------------------------|
A-----------------------6666666644444444----------|
E444444446666666622222222----------------44444444-|

Verse
G------------------------------------|
D------------------------------------|
A44444444--------22222222-6----------|
E--------66666666-----------44444444-|

Chorus

Bridge 2

wait 1 Messure

G---------------------------------------------------------|
D---------------------------------------------------------|
A----4------6----4---------------44444444-----------------|
E222---6---4------4444444442222222-------6666666644444444-|

G-------------------------|
D-------------------------|
A6666666644444444---------|
E----------------44444444-|

Chorus (x2)
            
Hard to play? Try these video lessons and learn fast. | Correct




comments powered by Disqus
↑ Back to top | Tablatures and chords are parodies/interpretations of the original songs. You may use it for private study, scholarship, research or language learning purposes only