» » »

Casting Crowns, Holy One Tabs (ver.1)

Artists:  A B C D E F G H I J K L M N O P Q R S T U V W X Y Z # 

Holy One Tabs (ver.1)

Casting Crowns Tabs
Rating:
4/5 (1 vote)
Holy One lessons Tabs too difficult? Try these video lessons and learn fast
                Song : Holy One
Artist : Casting Crowns
Album : Until The Whole World Hears

pretty good song so i figured i'd tab it out.
Intro :
e---------------------------------------------------------|
B---------------------------------------------------------|
G-6--4-6--4-6--4-4-4-4----------------------  -Repeat 3x--|
D-6--4-6--4-6--4-4-4-4------------------------------------|
A-4--2-4--2-4--2-2-2-2------------------------------------|
E---------------------------------------------------------|
then Verse 1:
  O God...     Earnestly I seek you..     Dry and Weary..
e---------------------------------------------------------------|
B---------------------------------------------------------------|
G-6--4-6--4-6--4-4-4-4-----6--4-6--4-6--4-4-4-4-----4--4-4-4-4--|
D-6--4-6--4-6--4-4-4-4-----6--4-6--4-6--4-4-4-4-----4--4-4-4-4--|
A-4--2-4--2-4--2-2-2-2-----4--2-4--2-4--2-2-2-2-----2--2-2-2-2--|
E---------------------------------------------------------------|

Pre-Chorus:
Lift Your Voices
e-----------------|
B-----------------|
G-3-------5-------|
D-4-------6-------|
A-4-------6-------|
E-2-------4-------|

Chorus
Use these chords
Let....Be Heard..On the ends... Praise The Holy One!
e------------------------------------------|
B------------------------------------------|
G-6-----4-------3--------------5-----------|
D-6-----4-------4--------------6-----------|
A-4-----2-------4--------------6-----------|
E---------------2--------------4-----------|
Use these chords and this pattern throughout the chorus.

Verse 2 :
e---------------------------------------------------------------|
B---------------------------------------------------------------|
G-6--4-6--4-6--4-4-4-4-----6--4-6--4-6--4-4-4-4-----4--4-4-4-4--|
D-6--4-6--4-6--4-4-4-4-----6--4-6--4-6--4-4-4-4-----4--4-4-4-4--|
A-4--2-4--2-4--2-2-2-2-----4--2-4--2-4--2-2-2-2-----2--2-2-2-2--|
E---------------------------------------------------------------|

Pre-Chorus 1x

Chorus 1x

Bridge :
use the same chords that you used in verse 1 & 2

then Chorus 2x.

and then the Outtro:
e---------------------------------------------------------|
B---------------------------------------------------------|
G-6--4-6--4-6--4-4-4-4----------------------  -Repeat 3x--|
D-6--4-6--4-6--4-4-4-4------------------------------------|
A-4--2-4--2-4--2-2-2-2------------------------------------|
E---------------------------------------------------------|
            

comments powered by Disqus
↑ Back to top | Casting Crowns Tabs for Holy One. Lyrics for acoustic guitar and electric guitar. Tablatures and chords are parodies/interpretations of the original songs. You may use it for private study, scholarship, research or language learning purposes only