» » »

Walk The Line Tabs (ver.2)

Artists:  A B C D E F G H I J K L M N O P Q R S T U V W X Y Z # 

Walk The Line Tabs (ver.2)

Cash Johnny
Rating:
0/5 (0 votes)

Hard to play? Try these video lessons and learn fast.
                Walk the line-Johnny cash

i think thats close



Intro:
e------------------------------------------------------------------
b------------------------------------------------------------------
g------------------------------------------------------------------
d-------------------------1--2-----2--2--1-------------------------
a---------0--2-----2--2--4-------2--------4----2----2--2--1--------
e---2--4--------2---------------------------------2----------4--2--

e--------------------------------------------------------------
b--------------------------------------------------------------
g--------------------------------------------------------------
d---------------------3----------------------------------------
a---4-------------4---4----4--2----2----------4---4---4--4-----
e---------2--4--2--------------------4--2---2---2---2---2------
            
Hard to play? Try these video lessons and learn fast. | Correct




comments powered by Disqus
↑ Back to top | Tablatures and chords are parodies/interpretations of the original songs. You may use it for private study, scholarship, research or language learning purposes only