» » »

Cary Brothers, Cant Take My Eyes Off Of You Chords (ver.1)

Artists:  A B C D E F G H I J K L M N O P Q R S T U V W X Y Z # 

Cant Take My Eyes Off Of You Chords (ver.1)

Cary Brothers Tabs
 Rating:
4/5 (4 votes)
Cant Take My Eyes Off Of You lessons Tabs too difficult? Try these video lessons and learn fast
1
                This song is a beautiful song... I heard it on Smallville of course... I sang it for my
and I teared up. It is really a moving song if you really get into it...

I tune my guitar a half step down. So, Capo 5 for this song, but Standard it is Capo 4.

It is picked, but strumming sounds great too. The high pitch pick is the bottom E
So you really just have to listen and play to figure it out. I'm not sure of the technical
haha

Genre: Alternative


C    |-------------0-----------------------0---------------------------|
A    |-----------------------------------------------------------------|
P    |-------0---------0------------0----------0-----------------------|
O    |---------2---------2-------------2---------2---------------------|
     |-------2-----2---------2------2------2---------2-----------------|
4    |-----------------------------------------------------------------|

C    |-------------0-----------------------0---------------------------|
A    |-----------------------------------------------------------------|
P    |-------0---------0------------0----------0-----------------------|
O    |---------2---------2-------------2---------2---------------------|
     |-------3-----3---------3------3------3---------3-----------------|
4    |-----------------------------------------------------------------|

If you're really good at picking and singing than that is a pretty simple riff all the
through the song... except when it hits the second chorus. It's still in Em, but there is
different pitch I'm not sure. Feel free to correct me if I'm wrong. This is my first tab 
chord set I've posted.

Verse:
Em                                                C
I've come to tell you all the truth
Em                                                C
Though you always had the proof of it

Em
My arms will grow
Chest expanding

C
Of all the boys you could have landed
Em                              C
Why'd it have to be me?

Chorus:
Em                                                         C
You...can't take my eyes off of you
Em                                                         C
You...can't take my eyes off of you

C    |-------------3-----------------------2---------------------------|
A    |-----------------------------------------------------------------|
P    |-------0---------0------------0----------0-----------------------|
O    |---------2---------2-------------2---------2---------------------|
     |-------2-----2---------2------2------2---------2-----------------|
4    |-----------------------------------------------------------------|

C    |-------------0-----------------------0---------------------------|
A    |-----------------------------------------------------------------|
P    |-------0---------0------------0----------0-----------------------|
O    |---------2---------2-------------2---------2---------------------|
     |-------3-----3---------3------3------3---------3-----------------|
4    |-----------------------------------------------------------------|

Verse:
Em                                            C
Wisdom tells me to turn away
Em                                            C
Broken once, it's all the same

Em
My arms will grow
Chest expanding

C
Of all the boys you could have landed
Em                               C
Why'd it have to be me?

Chorus:
Em                                                         C
You...can't take my eyes off of you
Em                                                         C-B-G-F#m
You...can't take my eyes off of you

Outro:
Em          G
              Ooooooh
Em          G
              Ooooooh
Em          G
              Ooooooh
Em          G
              Ooooooh
Em          G
              Ooooooh
            
Submit corrections

comments powered by Disqus
↑ Back to top | Cary Brothers Chords for Cant Take My Eyes Off Of You. Lyrics for acoustic guitar and electric guitar. 1 Tablatures and chords are parodies/interpretations of the original songs. You may use it for private study, scholarship, research or language learning purposes only