» » »

Carulli Ferdinando, Valse Tabs (ver.2)

Artists:  A B C D E F G H I J K L M N O P Q R S T U V W X Y Z # 

Valse Tabs (ver.2)

Carulli Ferdinando Tabs
Rating:
0/5 (0 votes)
Valse lessons Tabs too difficult? Try these video lessons and learn fast
                Valse  - Carulli
~~~~~
Play:  Valse (with repeats) - Trio (with repeats) - Valse (no repeats)

3/8 time.

VALSE

||--0-------0---|-0-------0---|-2---3---2---|-3---2---3---|
||----0---0---0-|---0---0---0-|---0---0---0-|---0---0---0-|
||*-----0-------|-----0-------|-------------|-------------|
||*-2-----------|-2-----------|-1-----------|-2-----------|
||--------------|-------------|-------------|-------------|
||--------------|-------------|-------------|-------------|


|-0-------0---|-0-------0---|-2---3---2---|-0----------||
|---0---0---0-|---0---0---0-|---0---0---0-|-0----------||
|-----0-------|-----0-------|-------------|-0---------*||
|-2-----------|-2-----------|-1-----------|-2---------*||
|-------------|-------------|-------------|------------||
|-------------|-------------|-------------|------------||


||--------------|---------0---|-2---3---2---|-3---2---3---|
||----0---0---0-|---0---0---0-|---0---0---0-|---0---0---0-|
||*-------------|-----0-------|-------------|-------------|
||*-1-------1---|-2-----------|-1-----------|-2-----------|
||------2-------|-------------|-------------|-------------|
||--------------|-------------|-------------|-------------|


|-------------|---------0---|-2---3---2---|-0----------||
|---0---0---0-|---0---0---0-|---0---0---0-|-0----------||
|-------------|-----0-------|-------------|-0---------*|| Fine
|-1-------1---|-2-----------|-1-----------|-2---------*||
|-----2-------|-------------|-------------|------------||
|-------------|-------------|-------------|------------||


TRIO

||--------------|-------------|-------------|-------------|
||--0---0---1---|-3-------3---|-1-------1---|-0-------0---|
||*-0---0---2---|---4---4---4-|---2---2---2-|---0---0---0-|
||*-------------|-----0-------|-----0-------|-----0-------|
||--------------|-------------|-------------|-------------|
||--3-----------|-------------|-------------|-------------|


|-------------|-------------|-------------|-----------||
|-0---0---1---|-3-------3---|-1-------1---|-----------||
|-0---0---2---|---4---4---4-|---2---2---2-|-0--------*||
|-------------|-----0-------|-----0-------|----------*||
|-------------|-------------|-------------|-----------||
|-3-----------|-------------|-------------|-3---------||


||----------0---|-2---2---3---|-------------|-------------|
||--3---3---2---|-1---1---0---|-1-------1---|-0-------0---|
||*-------------|-------------|---2---2---2-|---0---0---0-|
||*---0---0---0-|---0---0---0-|-----0-------|-----0-------|
||--------------|-------------|-------------|-------------|
||--------------|-------------|-------------|-------------|


|---------0---|-2---2---3---|-------------|-----------||
|-3---3---2---|-1---1---0---|-1-------1---|-----------||
|-------------|-------------|---2---2---2-|-0--------*|| Valse
|---0---0---0-|---0---0---0-|-----0-------|----------*|| da Capo
|-------------|-------------|-------------|-----------||
|-------------|-------------|-------------|-3---------||
            

comments powered by Disqus
↑ Back to top | Carulli Ferdinando Tabs for Valse. Lyrics for acoustic guitar and electric guitar. Tablatures and chords are parodies/interpretations of the original songs. You may use it for private study, scholarship, research or language learning purposes only