» » »

Carter Deana, Theres No Limit Tabs (ver.1)

Artists:  A B C D E F G H I J K L M N O P Q R S T U V W X Y Z # 

Theres No Limit Tabs (ver.1)

Carter Deana Tabs
Rating:
0/5 (0 votes)
Theres No Limit lessons Tabs too difficult? Try these video lessons and learn fast
                (Solo)

Intro:

|-----4---------------4h6-4-------|
|----4---------------4------------|
|-5h6----5h6-5----5h6------6h5----|  repeats 3 or 4 X, then again in the
|------------------------------6--|  middle of the song at different parts
|---------------------------------|
|---------------------------------|


Solo: (Very limited part!) :)

|---------------------------------------11---13b11--------16--|
|------------------------------13-14-15-------------14b13-----|
|-11h13-13--11h13-13--11h13-13-------------13-----------------|
|-------------------------------------------------------------|
|-------------------------------------------------------------|
|-------------------------------------------------------------|

|-20p16---18p16---20p16---21p16---|  
|------16------16------16------16-|
|---------------------------------| repeat 2x then:
|---------------------------------|
|---------------------------------|
|---------------------------------|

|-20p16----18p16----16-16-16---16-16-16---18---16-----------|
|-------16-------16--------------------------18---18h16-----|
|-------------------------------------------------------18--|
|-----------------------------------------------------------|
|-----------------------------------------------------------|
|-----------------------------------------------------------|

OR
if you don't have enough frets you can play it an octave lower:
|-8p4---6p4---8p4---9p4---|  
|-----4-----4-----4-----4-|
|-------------------------| repeat 2x then:
|-------------------------|
|-------------------------|
|-------------------------|

|-8p4----6p4----4-4-4---13-13-13----13---11--------------|
|-----4-----4--------------------------13---13h11--------|
|-------------------------------------------------13-----|
|--------------------------------------------------------|
|--------------------------------------------------------|
|--------------------------------------------------------|

/ = slur up
\ = slur down
h = hammer on (or if 13h11, then hammer-off of 13 to 11)
p = pull-off 
b = bend  (13b11  means play 13 and bend it, then play 11)

Thanks for reading! Have FUN!
            

comments powered by Disqus
↑ Back to top | Carter Deana Tabs for Theres No Limit. Lyrics for acoustic guitar and electric guitar. Tablatures and chords are parodies/interpretations of the original songs. You may use it for private study, scholarship, research or language learning purposes only