» » »

Last Name Bass tabs (ver.1)

Artists:  A B C D E F G H I J K L M N O P Q R S T U V W X Y Z # 

Last Name Bass tabs (ver.1)

Carrie Underwood
Rating:
0/5 (0 votes)

Hard to play? Try these video lessons and learn fast.
                Tuning: Drop D [D A D G]

I realize this is probably the wrong tuning, I've seen it as Eb Standard.
But I feel this is easier than tuning your entire bass down, and it's
still the same notes.

Intro
|-------------------------------------|
|-------------------------------------|
|-------------------------------------|
|-1-3------6-8-----1-3-------8--6-5-4-|

|-------------------------------------|
|-------------------------------------|
|-------------------------------------|
|-1-3------6-8-----1-3------6-8---6~--|

Verse
|-------------------------------------|
|-------------------------------------|
|-------------------------------------|
|-1-3------6-8-----1-3-------8--6-5-4-|

|--------------------------------------|
|--------------------------------------|
|--------------------------------------|
|-1-3------6-8-----1-3------10--8-6-5--|

Chorus
|---------------------------|
|---------------------------|
|---------------------------| x3
|-1--1---8--8---3--3--3--3--|

(last time)
|-------------|
|-------------|
|-------------|
|-1--1---8-8--|

Verse
|-------------------------------------|
|-------------------------------------|
|-------------------------------------|
|-1-3------6-8-----1-3-------8--6-5-4-|

|--------------------------------------|
|--------------------------------------|
|--------------------------------------|
|-1-3------6-8-----1-3------10--8-6-5--|

Pre-Chorus
|-------|
|-------|
|-------|
|-8~~~--|

Chorus
|---------------------------|
|---------------------------|
|---------------------------| x4
|-1--1---8--8---3--3--3--3--|

Solo (backing)
|---------------------------|
|---------------------------|
|---------------------------| x2
|-1--1---8--8---3--3--3--3--|

Verse
|-------------------------------------|
|-------------------------------------|
|-------------------------------------|
|-1-3------6-8-----1-3------6-8---6~--|

|---------------------------------|
|---------------------------------|
|---------------------------------|
|-1-3------6-8-----1-3------6-8---|

Pre-Chorus
|--------------------|
|--------------------|
|--------------------|
|-10~-10~-10~-10~-8~-|

Chorus
|---------------------------|
|---------------------------|
|---------------------------| x4
|-1--1---8--8---3--3--3--3--|

Bridge
|-----------------------------|
|-----------------------------|
|-----------------------------| x4
|-13--13---8--8---3--3--3--3--|

Chorus
|---------------------------|
|---------------------------|
|---------------------------| x8
|-1--1---8--8---3--3--3--3--|
            
Hard to play? Try these video lessons and learn fast. | Correct




comments powered by Disqus
↑ Back to top | Tablatures and chords are parodies/interpretations of the original songs. You may use it for private study, scholarship, research or language learning purposes only