» » »

Before He Cheats Tabs (ver.1)

Artists:  A B C D E F G H I J K L M N O P Q R S T U V W X Y Z # 

Before He Cheats Tabs (ver.1)

Carrie Underwood
Rating:
2/5 (2 votes)

Tabs too difficult? Try these video lessons and learn fast.
                PLEASE DELETE THIS IS OLD AND WRONGGGGGGGGGGG

intro:
------2--------------------------------------|
---------------------------------------------|
--4b6r----4-2-4b6-2---2/4-----2h4------------|
--------------------4------------------------|
---------------------------------------------|
---------------------------------------------|

------2-----------------------------------------|
------------------------------------------------|
--4b6r----4-2-4b6-2---2b4-1---------------------|
------------------------------------------------|
------------------------------------------------|
------------------------------------------------|

chords: F#m E A B F#m E A C#
(i think they use a capo on 2 but oo well u get the idea)
            
Tabs too difficult? Try these video lessons and learn fast.


comments powered by Disqus
↑ Back to top | Tablatures and chords are parodies/interpretations of the original songs. You may use it for private study, scholarship, research or language learning purposes only